Reach for the Sky by Firehouse Ukulele Chords

Posted on

If you are searching for Reach for the Sky ukulele chords, you already come to the right place.
You can play versatile instrument Reach for the Sky using ukulele or guitar.
This song by Firehouse can also be played by that instruments.
=

Reach for the Sky chords has rhythm and included in Hold Your Fire (1992) album.
You can also get another musical style, including jazz ukulele chords, country music ukulele chords, pop ukulele chords, world music ukulele chords, and rock ukulele chords here.

Reach for the Sky by Firehouse Ukulele Chords

reach for the sky – firehouse

Tune your guitar 1/2 down (Ab).
The solo is not complete, there’s only the first part.. sorry but i’m not a professional. 😛

| / slide up
| slide down
| h hammer-on
| p pull-off
| ~ vibrato
| + harmonic
| x Mute note

INTRO:


|-----------------------------3-2-0----|------------------------------------------|
|-----5---------------------3-------3--|-----5---------------------2--------------|
|---4---4--------0--------2------------|---4---4--------0--------2----------2-----|
|-2------------2---2----0--------------|-2------------2---2----0----------2---2---|
|------------3-------------------------|------------3-------------------0---------|
|--------------------------------------|------------------------------------------|

repeat twice

INTRO VERSE:


|-----------------------------3-2-0----|------------------------------------------|
|-----5---------------------3-------3--|-----5---------------------2--------------|
|---4---4--------0--------2------------|---4---4--------0--------2----------2-----|
|-2------------2---2----0--------------|-2------------2---2----0----------2---2---|
|------------3-------------------------|------------3-------------------0---------|
|--------------------------------------|------------------------------------------|

Well I’m an outlaw I make my living on the run


|-----------------------------3-2-0----|------------------------------------------|
|-----5---------------------3-------3--|-----5---------------------2--------------|
|---4---4--------0--------2------------|---4---4--------0--------2----------------|
|-2------------2---2----0--------------|-2------------2---2----0----------2-------|
|------------3-------------------------|------------3-------------------0---0-2---|
|--------------------------------------|------------------------------------------|

My life is lonely, but I was born to need no one


|---------------------------------|----------------------------------|
|---------------------3-----3-----|-----5------------------2---------|
|-----0-----0-------2---2-----2---|---4---4-----0--------2-----------|
|---2---2-----2---0-------0-----0-|-2---------2---2----0-------2-----|
|-3-------3-----3-----------------|---------3----------------0---0-2-|
|---------------------------------|----------------------------------|

Always on my own ohh


|------------------------------------|
|---------------------3-----3------3-|
|-----0-----0-------2---2-----2----2-|
|---2---2-----2---0-------0-----0--0-|
|-3-------3-----3--------------------|
|------------------------------------|

VERSE #1: powercohrds, distortion_

My gun is loaded, I’m a six-shot heart attack
I pull the trigger, so you better watch your back
A E G A E D-DE E | E D G F# E D
Looking out for number one so you had better take this piece of advice
Make your move, stick ’em up or kiss your ass goodbye

( Tab from: http://www.guitartabs.cc/tabs/f/firehouse/reach_for_the_sky_tab.html )
CHORUS:
Reach for the sky or I will shoot you down
In the blink of an eye — reach for the sky
There’s nowhere to run nowhere to hide
Reach for the sky
I got the drop on you so raise them [D-D]high
Reach for the sky

VERSE #2: acoustic guitar, arpeggio_


E|---------------------------3-2-0---------|-----------------------------------|
B|---5-------------------3---------3-------|---5------------------3------------|
G|-----4-------0-----------2---------------|-----4-------0----------2-----2----|
D|-2-----2-------2-----0-------------------|-2-----2-------2----0-------2---2--|
A|-----------3-----3-----------------------|-----------3-----3--------0--------|
E|-----------------------------------------|-----------------------------------|

Well it’s a shot show down, this is what I do for fun


E|---------------------------3-2-0---------|-----------------------------------|
B|---5-------------------3---------3-------|---5------------------3------------|
G|-----4-------0-----------2---------------|-----4-------0----------2-----2----|
D|-2-----2-------2-----0-------------------|-2-----2-------2----0-------2---2--|
A|-----------3-----3-----------------------|-----------3-----3--------0--------|
E|-----------------------------------------|-----------------------------------|

I got e reputation, yeah I’m the fastest gun

no more arpeggio here
I’m living on the highway movin’ on from town to town
You better do it my way or I will shoot you down
E G A E G A E D-DE E | E D G F# E D
Looking out for number one so you had better take this piece of advice
Make your move, stick ’em up or kiss your ass goodbye

CHORUS:
Reach for the sky or I will shoot you down
In the blink of an eye — reach for the sky
There’s nowhere to run nowhere to hide
Reach for the sky
I got the drop on you so raise them [D-D]high
Reach for the sky

SOLO:


E|-------------------12-14-15-15--15-15-14----------------17 h 19 h 17--14-15--|
B|-15h17h15-12-15h17-----------------------15----------------------------------|
G|--------------------------------------------14-16 h 17-----------------------|
D|-----------------------------------------------------------------------------|
A|-----------------------------------------------------------------------------|
E|-----------------------------------------------------------------------------|

So you think you’re fast enough?

Oh go for your guns baby

CHORUS:
Reach for the sky or I will shoot you down
In the blink of an eye — reach for the sky
There’s nowhere to run nowhere to hide
Reach for the sky
Reach for the sky or I will shoot you down
In the blink of an eye — reach for the sky
There’s nowhere to run nowhere to hide
Reach for the sky
I got the drop on you so raise them high
Reach for the sky
Ohh reach for the sky

To play the this songs, including Reach for the Sky by Firehouse by ukulele, the most crucial basic ukulele chords to learn are C chord, D chord, G chord, and Em chord.
These set you up to play a ton of songs, and each of them is easy to learn.

Gravatar Image
Like to play Ukulele and Sudoku Game

Leave a Reply

Your email address will not be published. Required fields are marked *