Really in Love by Andrew W.K. Ukulele Chords

Posted on

If you are looking for Really in Love ukulele chords, you already come to the right place.
You can play versatile instrument Really in Love using ukulele or guitar.
This song by Andrew W.K. can also be played by that instruments.
=

Really in Love chords has rhythm and included in The Wolf (2003) album.
You can also get other musical style, including jazz ukulele chords, country music ukulele chords, pop ukulele chords, world music ukulele chords, and rock ukulele chords here.

Really in Love by Andrew W.K. Ukulele Chords

Standard Tuning. Piano chords arranged for guitar. Rock & Enjoy!!

[—]

I… I am alike… A lot like you… Oh, like you

Post-line lick:


D|-----2-3-2-0---|
A|---3-----------|
E|-3-------------|

I do what I want And I want you Oh, want you
I learned all that i need to know
To understand I love you so
You get me, I get you, we get us

[Play Verse]
I can’t explain it anymore
I’m not too young to
know for sure
You get me, I get
you, we get us

[Pre-Chorus]
I didn’t know what I was Didn’t know what i
wanted from love
But now I know that I’m right
Even if you won’t have me, I don’t care.


Because I’m
Really in love
Really in love
I am falling really in love
Really in love
Really in love
I am falling really in love
(In love) When I’m saying your name
(In love) Know it’s not the same
(In love) I’m down on my knees
F (palm mute)
Please don’t go

[Interlude]
C Em F x4


You… you live alone
And I do too
I really really really
really want you


You’ve got no things
you need to say
The love I have won’t go away
You get me, I get
you, we get us

[Pre-Chorus]
I didn’t know what I was
Didn’t know what I
wanted from love
But now I know that I’m right
Even if you won’t
have me, I’ll keep
trying


Cause I’m
Really in love
Really in love
I am falling really in love
Really in love
Really in love
I have fallen really in love

In love
When you’re saying my name
In love
Know it’s not the same
In love
I’m down on my knees
Please, please, please

[Solo/Outro]


e|-----|------------------------------------------------|
B|-----|------------------------------------------------|
G|-10-|o-9-10-9------------------------10-9-7-5--9-----|
D|-----|o----------5-5/9/5-55/7-7-5-5/7-----------------|
A|-----|------------------------------------------------|
E|-----|------------------------------------------------|

the first note is the high voice sound on the last “please”

Play x2


e|------------------------------------------------------|
B|------------------------------------------------------|
G|---------7-7-5-5-4-4-5-5-7-9-10----------------------o|
D|-5-5/7/5---------------------------------------------o|
A|------------------------------------------------------|
E|------------------------------------------------------|

Play to fade


e|------------------------------------------------------|
B|-------------------13-10---10-12-13-13----------------|
G|-9----12---12-9-12---------------------10-9b10r9------|
D|------------------------------------------------------|
A|------------------------------------------------------|
E|------------------------------------------------------|

Fade out from here, the outro goes one octave higher but
I’m sure you can figure it out yourselves!

To play the this songs, including Really in Love by Andrew W.K. by ukulele, the most important basic ukulele chords to learn are C chord, D chord, G chord, and Em chord.
These set you up to play a a lot of songs, and each of them is easy to master.

Leave a Reply

Your email address will not be published.