Ride Into the Sun by Def Leppard Ukulele Chords

Posted on

If you are searching for Ride Into the Sun ukulele chords, you have come to the right site.
You can play versatile instrument Ride Into the Sun using ukulele or guitar.
This song by Def Leppard can also be played by that instruments.
=

Ride Into the Sun chords has rhythm and included in Retro Active (1993) album.
You can also find another musical genres, including jazz ukulele chords, country music ukulele chords, pop ukulele chords, world music ukulele chords, and rock ukulele chords here.

Ride Into the Sun by Def Leppard Ukulele Chords


---------------------------------------------------------------------------

Ride Into the Sun-Def Leppard


----------------------------------------------------------------------------

Tabbed by: Teamski (19 Jan 2008,fixed 24 Mar 2008)
Email: teamski1@hotmail.com

Tuning: Normal

Intro


e|----------------------------------------------------------------|
B|------9-9--7----------9-9--7----------9-9--7----------9-9--12---|
G|--1---9-9--7----------9-9--7----------9-9--7----------9-9--12---|
D|--2---9-9--7----------9-9--7----------9-9--7----------9-9--12---|
A|--2---7-7--5------7---7-7--5------7---7-7--5------7---7-7--10---|
E|--------------0-5--0----------0-5--0----------0-5--0------------|


e|-----------------------2-3-3-2-3-3------------------------------|
B|-----------------------3-3-3-3-3-3------9-9--7---------9-9--7---|
G|---5--7--5--7--5--7-2--2-2-2-2-2-2--1---9-9--7---------9-9--7---|
D|--5--7--5--7--5--7--2---------------2---9-9--7---------9-9--7---|
A|-3--5--3--5--3--5---1---------------2---7-7--5-----7---7-7--5---|
E|-----------------------------------------------0-5--0-----------|
e|---------------------------------------------------------|
B|---------9-9--7----------9-9--7---7-------------9-9--7---|
G|---------9-9--7----------9-9--7---7-------------9-9--7---|
D|---------9-9--7----------9-9--7---7--7----------9-9--7---|
A|-----7---7-7--5------7---7-7--5---5--7------7---7-7--5---|
E|-0-5--0----------0-5--0--------------5--0-5--0-----------|

Reving up, hundred and four. Hammer down, foot to the floor.
Such a hard ride, ridin into the sun.


e|---------------------------------------------------------|
B|---------9-9--7----------9-9--7---7-------------9-9--7---|
G|---------9-9--7----------9-9--7---7-------------9-9--7---|
D|---------9-9--7----------9-9--7---7--7----------9-9--7---|
A|-----7---7-7--5------7---7-7--5---5--7------7---7-7--5---|
E|-0-5--0----------0-5--0--------------5--0-5--0-----------|

Shootin in, gotta ticket to ride. Movin out, this is no place to hide
When youre ridin, ridin into the sun.


e|--------------------------------------------------------------|
B|-------------------------------------------------------4-4-4--|
G|-------------------------------------------------------4-4-4--|
D|-5-5-5-5--7-7-7-7--5-5-5-5--7-7-7-7--5-5-5-5--7-7-7-7--4-4-4--|
A|-5-5-5-5--7-7-7-7--5-5-5-5--7-7-7-7--5-5-5-5--7-7-7-7--2-2-2--|
E|-3-3-3-3--5-5-5-5--3-3-3-3--5-5-5-5--3-3-3-3--5-5-5-5---------|

Were gonna make it baby,So step inside.And if we make it baby,
(a) were gonna ride… (into the sun.)


e|-----------------------------|
B|----9-9--7----------9-9--7---|
G|-1--9-9--7----------9-9--7---|
D|-2--9-9--7----------9-9--7---|
A|-2--7-7--5------7---7-7--5---|
E|------------0-5--0-----------|

Just ride into the sun.


e|---------------------------------------------------------|
B|---------9-9--7----------9-9--7---7-------------9-9--7---|
G|---------9-9--7----------9-9--7---7-------------9-9--7---|
D|---------9-9--7----------9-9--7---7--7----------9-9--7---|
A|-----7---7-7--5------7---7-7--5---5--7------7---7-7--5---|
E|-0-5--0----------0-5--0--------------5--0-5--0-----------|

( Tab from: http://www.guitartabs.cc/tabs/d/def_leppard/ride_into_the_sun_tab_ver_2.html )
Burn it up, were gonna cruise. Kick down, nothin to lose.
When youre ridin, ridin into the sun.


e|---------------------------------------------------------|
B|---------9-9--7----------9-9--7---7-------------9-9--7---|
G|---------9-9--7----------9-9--7---7-------------9-9--7---|
D|---------9-9--7----------9-9--7---7--7----------9-9--7---|
A|-----7---7-7--5------7---7-7--5---5--7------7---7-7--5---|
E|-0-5--0----------0-5--0--------------5--0-5--0-----------|

A hot shot, hooked on the street. Im in love, got the fire in me.
When Im ridin, ridin into the sun.


e|--------------------------------------------------------------|
B|-------------------------------------------------------4-4-4--|
G|-------------------------------------------------------4-4-4--|
D|-5-5-5-5--7-7-7-7--5-5-5-5--7-7-7-7--5-5-5-5--7-7-7-7--4-4-4--|
A|-5-5-5-5--7-7-7-7--5-5-5-5--7-7-7-7--5-5-5-5--7-7-7-7--2-2-2--|
E|-3-3-3-3--5-5-5-5--3-3-3-3--5-5-5-5--3-3-3-3--5-5-5-5---------|

Were gonna make it baby,So step inside.And if we make it baby,
You know were gonna…Ride, ride into the sun.

Yeah, ride into the sun.

(SOLO)


e|--------------------------------------------------------------|
B|-------9-9--7----------9-9--7----------9-9--7----------9-9--7-|
G|-2-----9-9--7----------9-9--7----------9-9--7----------9-9--7-|
D|-2-----9-9--7----------9-9--7----------9-9--7----------9-9--7-|
A|-1-----7-7--5------7---7-7--5------7---7-7--5------7---7-7--5-|
E|---------------0-5--0----------0-5--0----------0-5--0---------|
e|---------------------------------------------------------|
B|---------9-9--7----------9-9--7---7-------------9-9--7---|
G|---------9-9--7----------9-9--7---7-------------9-9--7---|
D|---------9-9--7----------9-9--7---7--7----------9-9--7---|
A|-----7---7-7--5------7---7-7--5---5--7------7---7-7--5---|
E|-0-5--0----------0-5--0--------------5--0-5--0-----------|
e|--------------------------------------------------------------|
B|-------------------------------------------------------4-4-4--|
G|-------------------------------------------------------4-4-4--|
D|-5-5-5-5--7-7-7-7--5-5-5-5--7-7-7-7--5-5-5-5--7-7-7-7--4-4-4--|
A|-5-5-5-5--7-7-7-7--5-5-5-5--7-7-7-7--5-5-5-5--7-7-7-7--2-2-2--|
E|-3-3-3-3--5-5-5-5--3-3-3-3--5-5-5-5--3-3-3-3--5-5-5-5---------|

Were gonna make it baby,So step inside.And if we make it baby,
You know were gonna…Ride, ride into the sun.

Just ride into the sun
Yeah!


e|--------------------------------------------------------------|
B|-------9-9--7----------9-9--7----------9-9--7----------9-9--7-|
G|-2-----9-9--7----------9-9--7----------9-9--7----------9-9--7-|
D|-2-----9-9--7----------9-9--7----------9-9--7----------9-9--7-|
A|-1-----7-7--5------7---7-7--5------7---7-7--5------7---7-7--5-|
E|---------------0-5--0----------0-5--0----------0-5--0---------|
e|----------------------------------------------------------------|
B|---------9-9--7----------9-9--7----------9-9--7----------9-9--7-|
G|---------9-9--7----------9-9--7----------9-9--7----------9-9--7-|
D|---------9-9--7----------9-9--7----------9-9--7----------9-9--7-|
A|-----7---7-7--5------7---7-7--5------7---7-7--5------7---7-7--5-|
E|-0-5--0----------0-5--0----------0-5--0----------0-5--0---------|

| / slide up
| slide down
| h hammer-on
| p pull-off
| ~ vibrato
| + harmonic
| x Mute note

To play the most songs, including Ride Into the Sun by Def Leppard by ukulele, the most crucial basic ukulele chords to learn are C chord, D chord, G chord, and Em chord.
These set you up to play a ton of songs, and each of them is easy to master.

Leave a Reply

Your email address will not be published.