Rising Sun by Cold Chisel Ukulele Chords

Posted on

If you are searching for Rising Sun ukulele chords, you’ve come to the right site.
You can play versatile instrument Rising Sun using ukulele or guitar.
This song by Cold Chisel can also be played by that instruments.
=

Rising Sun chords has rhythm and included in East (1980) album.
You can also get other musical style, including jazz ukulele chords, country music ukulele chords, pop ukulele chords, world music ukulele chords, and rock ukulele chords here.

Rising Sun by Cold Chisel Ukulele Chords


-------------------------------------------------------------------------------

Rising Sun – Cold Chisel


-------------------------------------------------------------------------------

Tabbed by: Bimpy666

Tuning: Standard

Intor:


e|-------5----5-5--|-------5----5-5--|-------5----5-5--|-9--9---7-7--5-5--3-3--||
B|----5----5--5-5--|----5----5--5-5--|----5----5--5-5--|-10-10--8-8--7-7--5-5--||
G|--6--------------|--6--------------|--6--------------|-----------------------||
D|-----------------|-----------------|-----------------|-----------------------||
A|-----------------|-----------------|-----------------|-----------------------||
E|-----------------|-----------------|-----------------|-----------------------||

Verse:


|----------------------|----------------------|----------------------|----------------------|
|----------------------|----------------------|----------------------|----------------------|
|----------------------|----------------------|----------------------|----------------------|
|--2-2--2-2--2-2--2-2--|--2-2--2-2--2-2--2-2--|--2-2--2-2--2-2--2-2--|--2-2--2-2--2-2--2-2--|
|--0-0--3-4--0-0--3-4--|--0-0--3-4--0-0--3-4--|--0-0--3-4--0-0--3-4--|--0-0--3-4--0-0--3-4--|
|----------------------|----------------------|----------------------|----------------------|


|----------------------|----------------------|----------------------|----------------------|
|----------------------|----------------------|----------------------|----------------------|
|----------------------|----------------------|----------------------|----------------------|
|--2-2--2-2--2-2--2-2--|--2-2--2-2--2-2--2-2--|----------------------|----------------------|
|--0-0--3-4--0-0--3-4--|--0-0--3-4--0-0--3-4--|--2-2--2-2--2-2--2-2--|--2-2--2-2--2-2--2-2--|
|----------------------|----------------------|--0-0--3-4--0-0--3-4--|--0-0--3-4--0-0--3-4--|


|----------------------|----------------------|----------------------|----------------------|
|----------------------|----------------------|----------------------|----------------------|
|----------------------|----------------------|--2-2--2-2--2-2--2-2--|--2-2--2-2--2-2--2-2--|
|--2-2--2-2--2-2--2-2--|--2-2--2-2--2-2--2-2--|--0-0--3-4--0-0--3-4--|--0-0--3-4--0-0--3-4--|
|--0-0--3-4--0-0--3-4--|--0-0--3-4--0-0--3-4--|----------------------|----------------------|
|----------------------|----------------------|----------------------|----------------------|


|----------------------|----------------------|----------------------|----------------------||
|----------------------|----------------------|----------------------|----------------------||
|----------------------|----------------------|----------------------|----------------------||
|--2-2--2-2--2-2--2-2--|----------------------|--2-2--2-2--2-2--2-2--|--2-2--2-2--2-2--2-2--||
|--0-0--3-4--0-0--3-4--|--2-2--2-2--2-2--2-2--|--0-0--3-4--0-0--3-4--|--0-0--3-4--0-0--3-4--||
|----------------------|--0-0--3-4--0-0--3-4--|----------------------|----------------------||

Chorus:


|-----------------------|----------------------|----------------------|-----------------------|
|-----------------------|----------------------|----------------------|-----------------------|
|o--2-2--2-2--2-2--2-2--|--2-2--2-2--2-2--2-2--|----------------------|----------------------o|
|o--0-0--3-4--0-0--3-4--|--0-0--3-4--0-0--3-4--|--2-2--2-2--2-2--2-2--|--2-2--2-2--2-2--2-2--o|
|-----------------------|----------------------|--0-0--3-4--0-0--3-4--|--0-0--3-4--0-0--3-4---|
|-----------------------|----------------------|----------------------|-----------------------|


|-----------------------|----------------------|----------------------|-----------------------|
|-----------------------|----------------------|----------------------|-----------------------|
|---2-2--2-2--2-2--2-2--|--2-2--2-2--2-2--2-2--|----------------------|-----------------------|
|---0-0--3-4--0-0--3-4--|--0-0--3-4--0-0--3-4--|--2-------------------|-----------------------|
|-----------------------|----------------------|--0-------------------|-----------------------|
|-----------------------|----------------------|----------------------|-----------------------|


|-----------------------|----------------------|----------------------|-----------------------||
|-----------------------|----------------------|----------------------|-----------------------||
|o----------------------|----------------------|----------------------|----------------------o||
|o--4-4--4-4--4-4--4-4--|----------------------|--2-2--2-2--2-2--2-2--|--2-2--2-2--2-2--2-2--o||
|---2-2--2-2--2-2--2-2--|--2-2--2-2--2-2--2-2--|--0-0--3-4--0-0--3-4--|--0-0--3-4--0-0--3-4---||
|-----------------------|--0-0--0-0--0-0--0-0--|----------------------|-----------------------||

Middle:


|-----------------------|----------------------|----------------------|-----------------------|
|-----------------------|----------------------|----------------------|-----------------------|
|---2-2--2-2--2-2--2-2--|--2-2--2-2--2-2--2-2--|----------------------|-----------------------|
|---0-0--3-4--0-0--3-4--|--0-0--3-4--0-0--3-4--|--2-2--2-2--2-2--2-2--|--2-2--2-2--2-2--2-2---|
|-----------------------|----------------------|--0-0--3-4--0-0--3-4--|--0-0--3-4--0-0--3-4---|
|-----------------------|----------------------|----------------------|-----------------------|


|-----------------------|----------------------|----------------------|-----------------------||
|-----------------------|----------------------|----------------------|-----------------------||
|o--2-2--2-2--2-2--2-2--|--2-2--2-2--2-2--2-2--|----------------------|-----------------------||
|o--0-0--3-4--0-0--3-4--|--0-0--3-4--0-0--3-4--|--4-4--4-4--4-4--4-4--|-----------------------||
|-----------------------|----------------------|--2-2--2-2--2-2--2-2--|--2-2--2-2--2-2--2-2---||
|-----------------------|----------------------|----------------------|--0-0--0-0--0-0--0-0---||

The B chords may be wrong, but otherwise I’m pretty sure it’s correct.

To play the this songs, including Rising Sun by Cold Chisel by ukulele, the most important basic ukulele chords to learn are C chord, D chord, G chord, and Em chord.
These set you up to play a a lot of songs, and each of them is easy to master.

Gravatar Image
Like to play Ukulele and Sudoku Game

Leave a Reply

Your email address will not be published. Required fields are marked *