Roll Over by Zico Chain Ukulele Chords

Posted on

If you are looking for Roll Over ukulele chords, you’ve come to the right site.
You can play versatile instrument Roll Over using ukulele or guitar.
This song by Zico Chain can also be played by that instruments.
=

Roll Over chords has rhythm and included in Food (2007) album.
You can also get other musical genres, including jazz ukulele chords, country music ukulele chords, pop ukulele chords, world music ukulele chords, and rock ukulele chords here.

Roll Over by Zico Chain Ukulele Chords

Tuning: Drop C

Intro


D|------------------------------|
A|------------------------------|
F|------------------------------|
C|--------------------------|
G|------------------------------|
C|--7^-9-999--7^-99-9999--------|

Verse


D|------------------------------------------------------------------------|
A|------------------------------------------------------------------------|
F|------------------------------------------------------------------------|
C|---------------------------------------------12-12-12-12-7-7-7-7-7-7-7--|
G|------------------------------------------------------------------------|
C|--7^-9-999--7^-99-9999--7^-9-999'7^-99-9999--12-12-12-12-7-7-7-7-7-7-7--|
D|------------------------------||-------------------------------------------------|
A|------------------------------||-------------------------------------------------|
F|------------------------------||-------------------------------------------------|
C|--------------------------||--12-12-12-12-7-7-7-7-7-7-7--7-9-999--7-99-9999--|
G|------------------------------||-----------------------------7-9-999--7-99-9999--|
C|--7^-9-999--7^-99-9999--------||--12-12-12-12-7-7-7-7-7-7-7--7-9-999--7-99-9999--|

Pre-Chorus


D|----------------------------------------------------------|
A|----------------------------------------------------------|
F|----------------------------------------------------------|
C|--4-4-4-4-7-7-7-7------------------------4-4-4-4-7-7-7-7--|
G|--4-4-4-4-7-7-7-7------------------------4-4-4-4-7-7-7-7--|
C|--4-4-4-4-7-7-7-7--7^-9-999--7^-99-9999--4-4-4-4-7-7-7-7--|

Chorus


D|--------------------------|
A|----------------------|
F|--------------------------|
C|--9-9-7-7-12-12-7-7'------|
G|--9-9-7-7-12-12-7-7-------|
C|--9-9-7-7-12-12-7-7-------|

Bridge/Solo


D|---------------------------------------------------------------------------------|
A|---------------------------------------------------------------------------------|
F|------------------------------7777777777777777-10101010101010101010101010101010--|
C|------------------------------9999999999999999-12121212121212121212121212121212--|
G|---------------------------------------------------------------------------------|
C|--5-5-5-5-5-5-5-5-4-4-4-4-4v-----------------------------------------------------|

Slowly bend up ‘7’ & ’10’.


D|-----------------------------------------------------------------|
A|-----------------------------------------------------------------|
F|--15-15--10-10--9-10-11^12^11v/----------------------------------|
C|-----------------------------------------------------------------|
G|-------------------------------------------------------------7~--|
C|-------------------------------------4444-7777-99999999-4444-7~--|

All the parts are there and its pretty simple to work out the formation 😀
Corrections and constructive criticism welcome 😛

To play the most songs, including Roll Over by Zico Chain by ukulele, the most important basic ukulele chords to learn are C chord, D chord, G chord, and Em chord.
These set you up to play a a lot of songs, and each of them is easy to learn.

Leave a Reply

Your email address will not be published.