Roswell 47 by Hypocrisy Ukulele Chords

Posted on

If you are looking for Roswell 47 ukulele chords, you already visit to the right site.
You can play versatile instrument Roswell 47 using ukulele or guitar.
This song by Hypocrisy can also be played by that instruments.
=

Roswell 47 chords has rhythm and included in Abducted (1996) album.
You can also find another musical style, including jazz ukulele chords, country music ukulele chords, pop ukulele chords, world music ukulele chords, and rock ukulele chords here.

Roswell 47 by Hypocrisy Ukulele Chords

Visit MetalTabs.com for more metal tablature
Band: HYPOCRISY
Album: ABDUCTED
Song: ROSWELL 47

Copyright (c) NUCLEAR BLAST 1996
Version 666 – APRIL 2005

Transcribed By: Death8699, Interted & Warlock
Email: death8699@hotmail.com

. – palm mute / – slide up to
– slide down to ~ – vibrato
h – hammer on b – Bend
p – pull off Suffixes for bend
t – tap f – full bend h – half bend
ph – pinched harmonic q – quarter bend t – tap bend
– see comment ^ – Hold bend r release bend
x – Stuccatto ~ – vibrato bend
, – slight palm mute () – ghost note, sustained note
” – tremolo note – Trill

Tune Gtr to B (2.5 Steps Down)

–ROSWELL 47–

|Riff A|


|-------|------------------------|-------------------|
|-------|------------------------|-------------------|
|:------|----------9-------------|-------9----------:|[Gtr.1]
|:------|--------9--10-----------|---------9-10-----:|
|--453--|-2---/7------10---10-12-|----/7--------10--|
|--231--|-0--sl------------------|-0--sl---------sl--|

| … |


|-------|------------------------|-------------------|
|-------|------------------------|-------------------|
|:------|------------------------|------------------:|[Gtr.2]
|:------|-2----------------------|-(2)--------------:|
|--453--|-2----------------------|-(2)---------------|
|--231--|-0----------------------|-(0)---------------|

Play Riff A a total of 6 times.

|Riff B|


||--------------------------|------------------------||
||--------------------------|------------------------||
||:-------------------------|-----------------------:||[Gtrs.1&2]
||:-2------------------5----|-2---------------4-----:||
||--2---------2-4-5----3----|-2---------2-4-5-2-4-5--||
||--0---------0-2-3---------|-----------0-2-3---2-3--||

Play Riff B a total of 4 times.

|Riff C|


|----------------------------------|----------------------------------|
|----------------------------------|----------------------------------|
|----------------------------------|----------------------------------|[Gtr.1]

|-77779999101010101010101015151515-|-14141414141414141414141414141414-|


|----------------------------------|----------------------------------|
|----------------------------------|----------------------------------|

| |


|----------------------------------|----------------------------------|
|----------------------------------|----------------------------------|
|----------------------------------|----------------------------------|[Gtr.2]
|----------------------------------|----------------------------------|

|-77779999101010101010101015151515-|-14141414141414141414141414141414-|


|----------------------------------|----------------------------------|
|----------------------------------|----------------------------------|
|----------------------------------|----------------------------------|
|----------------------------------|----------------------------------|[Gtr.1]

|-77779999101010101010101015151515-|-14141414141414141313131313131313-|


|----------------------------------|----------------------------------|
|----------------------------------|----------------------------------|

| |


|----------------------------------|----------------------------------|
|----------------------------------|----------------------------------|
|----------------------------------|----------------------------------|[Gtr.2]
|----------------------------------|----------------------------------|

|-77779999101010101010101015151515-|-14141414141414141313131313131313-|


|----------------------------------|----------------------------------|

Repeat Riff A a total of 2 times.
Repeat Riff B a total of 2 times.
Repeat Riff C a total of one time.
Repeat Riff A a total of one time.

[Riff D](Note: (Both guitars play in unison for added texture)


|----------------------------------|---------------------------------|
|----10-9----9-10----10-9----10-11-|---10-9----9-10----10-9----12-13-|
|--7-------8-------7-------8-------|-7-------8-------7-------8-------|[Gtr.1]
|----------------------------------|---------------------------------|
|----------------------------------|---------------------------------|
|----------------------------------|---------------------------------|

| |


|----------------------------------|---------------------------------|
|----------------------------------|---------------------------------|
|----------------------------------|---------------------------------|[Gtr.2]
|----1514----1415----1514----15-16-|---1514----1415----1514----17-18-|
|--12------13------12------13------|-12------13------12------13------|
|----------------------------------|---------------------------------|

Play Riff D a total of 2 times.

Repeat Riff C a total of one time.
Repeat Riff A Till Fade

Visit MetalTabs.com for more metal tablature

To play the this songs, including Roswell 47 by Hypocrisy by ukulele, the most crucial basic ukulele chords to learn are C chord, D chord, G chord, and Em chord.
These set you up to play a many of songs, and each of them is easy to learn.

Leave a Reply

Your email address will not be published.