Rotted Human Waste by Vomit Remnants Ukulele Chords

Posted on

If you are searching for Rotted Human Waste ukulele chords, you’ve visit to the right site.
You can play versatile instrument Rotted Human Waste using ukulele or guitar.
This song by Vomit Remnants can also be played by that instruments.
=

Rotted Human Waste chords has rhythm and included in Supreme Entity (1999) album.
You can also find other musical genres, including jazz ukulele chords, country music ukulele chords, pop ukulele chords, world music ukulele chords, and rock ukulele chords here.

Rotted Human Waste by Vomit Remnants Ukulele Chords

“Rotten Human Waste”
from album “Supreme Entity” (1999)

NOTES:
p.m. – palm muting
” – tremolo picking
h – hammer on
p – pull off
~ – vibrato
^ – pinch harmonics

TUNING is C (2 steps down)


-|---------------------------------|-------------------------------|
-|---------------------------------|-------------------------------|
-|---------------------------------|-------------------------------|
-|---------------------------------|-------------------------------|
-|-7h8-----7-6-----5-4---------3h4-|-7h8-----7-6---------6~-----7~-|
-|-----9-9-----8-7-----5-4-3-4-----|-----9-9-----8-7-5-6----6-7----|

. . . . . . . . . . . . . . . . . . . . . .


---------------------------------|-----------------------------|
---------------------------------|-----------------------------|
---------------------------------|-----------------------------|
---------------------------------|-----------------6---5---4---|
-7h8-----7-6-----5-4---------3h4-|-7h8-----7-6-----6---5---4---|
-----9-9-----8-7-----5-4-3-4-----|-----9-9-----8-7-4---3---2---|

. . . . . . . . . . . . . . . . . . . . .

[Riff 1a]


-|---------------------------------|-------------------------------|
-|---------------------------------|-------------------------------|
-|---------------------------------|-------------------------------|
-|---------------------------------|-------------------------------|
-|-7h8-----7-6-----5-4---------3h4-|-7h8-----7-6---------6~-----7~-|
-|-----9-9-----8-7-----5-4-3-4-----|-----9-9-----8-7-5-6----6-7----|

. . . . . . . . . . . . . . . . . . . . . .


---------------------------------|---------------------------------|
---------------------------------|---------------------------------|
---------------------------------|---------------------------------|
---------------------------------|-----------------3"..------4"-7"-|
-7h8-----7-6-----5-4---------3h4-|-7h8-----7-6----------2"..-------|
-----9-9-----8-7-----5-4-3-4-----|-----9-9-----8-7-----------------|

. . . . . . . . . . . . . . . . . .

[Riff 1b]


-|---------------------------------|-------------------------------|
-|---------------------------------|-------------------------------|
-|---------------------------------|-------------------------------|
-|---------------------------------|-------------------------------|
-|-7h8-----7-6-----5-4---------3h4-|-7h8-----7-6---------6~-----7~-|
-|-----9-9-----8-7-----5-4-3-4-----|-----9-9-----8-7-5-6----6-7----|

| . . . . . . . . . . . . | . . . . . . . . . .


-|---------------------------------|-------------------------------|
-|---------------------------------|-------------------------------|
-|---------------------------------|-------------------------------|
-|-5h6-----5-4-----3-2---------1h2-|-5h6-----5-4-------------------|
-|-----7-7-----6-5-----3-2-1-2-----|-----7-7-----6-5-----6~-----7~-|
-|---------------------------------|-----------------5-6----6-7----|

. . . . . . . . . . . . . . . . . . . . . .


---------------------------------|---------------------------------|
---------------------------------|---------------------------------|
---------------------------------|---------------------------------|
---------------------------------|-----------------3"..------4"-7"-|
-7h8-----7-6-----5-4---------3h4-|-7h8-----7-6----------2"..-------|
-----9-9-----8-7-----5-4-3-4-----|-----9-9-----8-7-----------------|

. . . . . . . . . . . . | . . . . . . |


---------------------------------|---------------------------------|
---------------------------------|---------------------------------|
---------------------------------|---------------------------------|
-5h6-----5-4-----3-2---------1h2-|-5h6-----5-4---------------------|
-----7-7-----6-5-----3-2-1-2-----|-----7-7-----6-5-----------------|
---------------------------------|---------------------------------|

. . . . . . . . . . . . . . . . .

[Riff 2 (x2)] /second times without ending pinch harmonics/


-|-----------------------------------------------------|---------------------|
-|-----------------------------------------------------|---------------------|
-|-----------------------------------------------------|---------------------|
-|-----------------------------------------------------|---------------------|
-|-4/5-4-5-4-4/5-4-5-4-7h8-----7-6-----5-4---------3h4-|-4/5-4-5-4-4/5-4-5-4-|
-|-2/3-2-3-2-2/3-2-3-2-----9-9-----8-7-----5-4-3-4-----|-2/3-2-3-2-2/3-2-3-2-|

. . . . . . . . . . . . . . . . . . . . . . . .


-----------------|
-----------------|
-----------------|
-6---------------|
-4---6---7---4~~-|
-----4---5-------|

. . .


-|-----------------------------------------------------|
-|-----------------------------------------------------|
-|-----------------------------------------------------|
-|-------------------------------3---------------------|
-|-------4--------4--------4-5-4-1-4-------4--------4--|
-|-0-0-0-2--0-0-0-2--0-0-0-2-3-2---2-0-0-0-2--0-0-0-2--|

. . . . . . . . . . . . . . . . . . . .

[Riff 3 (x3)]


-|----------------------------------------------------------------------|
-|----------------------------------------------------------------------|
-|-----------------------------------------------------------------1122-|
-|-------------------------------3-------------------------22331122-----|
-|-------4--------4--------4-5-4-1-4-------4--------4--2233-------------|
-|-0-0-0-2--0-0-0-2--0-0-0-2-3-2---2-0-0-0-2--0-0-0-2-------------------|

. . . . . . . . . . . . . . . . . . . . …………….


---------------------------------------------------------------------|
---------------------------------------------------------------------|
---------------------------------------------------------------------|
-------------------------------3-------------------------------------|
-------4--------4--------4-5-4-1-4-------4--------4--7"----------5~--|
-0-0-0-2--0-0-0-2--0-0-0-2-3-2---2-0-0-0-2--0-0-0-2------6"--5"------|

. . . . . . . . . . . . . . . . . . . .

[BASS outro]

[Riff 4 (x2)]


-|----------------------------------------|------------------------------|
-|----------------------------------------|------------------------------|
-|----------------------------------------|------------------------------|
-|------------------------3-----5-----5---|------------------------------|
-|------------------------1-4-5-3-4-5-3-4-|-------------------------^----|
-|-0-0-0-2~-0-0-0-2~----2-3---2-3---2-|-0-0-0-2~-0-0-0-2~-0-0-0-2~~--|

. . . . . . . . . . . . . . . . . . .


-[ending 1]--------| -|-[ending2--------------------------------------------------|
-------------------| -|-----------------------------------------------------------|
-33----55----55----| -|-33----55----55---66----88----88--66----88-9p8-------------|
---4455--4455--44--| -|---4455--4455--44---7788--7788--77--7788------10p9---------|
-------------------| -|-_____(x2)_____/---------------------------------10p9-----|
-------------------| -|------------------------------------------------------10p9-|

……………. …………………………………..

[Riff 5a (x2)]


-|--------------------------------------------------------|
-|--------------------^-----------------------------------|
-|--------------------3~----------------------------------|
-|--------3-------------------------3---------------------|
-|-4-5-4--1--4--5--4-----4-4-5-5-4--1--4--5-5-4-4-2-2-4-4-|
-|-2-3-2-----2--3--2-----2-2-3-3-2-----2--3-3-2-2-0-0-2-2-|

. . . . . . . . . . . . . . . . . . . .

[Riff 5b (x2)]


-|----------------------------------------|-------------------------|
-|--------------------^-------------------|-------------------------|
-|--------------------3~------------------|-------------------------|
-|--------3-------------------------3-----|-----5---6-------7---6---|
-|-4-5-4--1--4--5--4-----4-4-5-5-4--1--4--|-5---3---4---5---5---4---|
-|-2-3-2-----2--3--2-----2-2-3-3-2-----2--|-3-----------3-----------|

. . . . . . . . . . . . . . . . .


-|-------------------------|
-|-------------------------|
-|-------------------------|
-|-----6---5-------5---4---|
-|-4---4---3---3---3---2---|
-|-2-----------1-----------|

. . . . . .

[Riff 6 (x2)] /under solo/


-|------------------------------|-----------------------------------|
-|------------------------------|-----------------------------------|
-|------------------------------|-----------------------------------|
-|------------------------------|-------------------6---------------|
-|-5-5-4--5--4-------5--4--2--3-|-5-5-4--5--4-------4---6---7---^---|
-|-3-3-2--3--2---3--2--0--1-|-3-3-2--3--2-------4---5---3~--|

. . . . . . . . . . . . . . . . .

[Riff 7 (x3)] /last time ending part is triplet/


-|------------------------|----------------------------------------|
-|------------------------|----------------------------------------|
-|------------------------|-------------------9----------7---------|
-|-3-------------3--7-----|-3---------------8---10-7-------6-8-5---|
-|-1-------------1--5--5--|-1-------------7----------9-5---------7-|
-|----0--0---------3--|----0--0----------------------------|

. . . . . . . .


-|-----------------------------------|
-|--------------------------^--------|
-|-------7--6-------------4-3~~------|
-|-9--8--6--5--4---4---4--2----------|
-|-8--7--5--4--4---4---4-------------|
-|-7--6--------2---2---2-------------|

. . . .

[RIFF 1a]

[Riff 1c]


-|---------------------------------|-------------------------------|
-|---------------------------------|-------------------------------|
-|---------------------------------|-------------------------------|
-|---------------------------------|---------------------8~-----9~-|
-|-7h8-----7-6-----5-4---------3h4-|-7h8-----7-6---------6~-----7~-|
-|-----9-9-----8-7-----5-4-3-4-----|-----9-9-----8-7-5-6----6-7----|

| . . . . . . . . . . . . | . . . . . . . . . .


-|---------------------------------|-------------------------------|
-|---------------------------------|-------------------------------|
-|---------------------------------|-------------------------------|
-|-5h6-----5-4-----3-2---------1h2-|-5h6-----5-4---------8~-----9~-|
-|-----7-7-----6-5-----3-2-1-2-----|-----7-7-----6-5-----6~-----7~-|
-|---------------------------------|-----------------5-6----6-7----|

. . . . . . . . . . . . . . . . . . . . . .


---------------------------------|-----------------------------|
---------------------------------|-----------------------------|
---------------------------------|-----------------------------|
---------------------------------|-----------------4-----------|
-7h8-----7-6-----5-4---------3h4-|-7h8-----7-6-----2--6--5--4--|
-----9-9-----8-7-----5-4-3-4-----|-----9-9-----8-7----4--3--2--|

. . . . . . . . . . . . | . . . . . . . . . . |


---------------------------------|-----------------------------|
---------------------------------|-----------------------------|
---------------------------------|-----------------------------|
-5h6-----5-4-----3-2---------1h2-|-5h6-----5-4-----4-----------|
-----7-7-----6-5-----3-2-1-2-----|-----7-7-----6-5-2--6--5--4--|
---------------------------------|--------------------4--3--2--|

. . . . . . . . . . . . . . . . . . . . .


-|------------------------------|
-|------------------------------|
-|------------------------------|
-|------------------------------|
-|-7h8-----7-6-----5-4-----2----|
-|-----9-9-----8-7-----5-4-0----|

. . . . . . . . . . .

END OF SONG

To play the most songs, including Rotted Human Waste by Vomit Remnants by ukulele, the most crucial basic ukulele chords to learn are C chord, D chord, G chord, and Em chord.
These set you up to play a many of songs, and each of them is easy to master.

Leave a Reply

Your email address will not be published.