Rottenatomy by Gorguts Ukulele Chords

Posted on

If you are searching for Rottenatomy ukulele chords, you’ve visit to the best site.
You can play versatile instrument Rottenatomy using ukulele or guitar.
This song by Gorguts can also be played by that instruments.
=

Rottenatomy chords has rhythm and included in Two From the Vault: Considered Dead / The Erosion of Sanity (2004) album.
You can also find other musical style, including jazz ukulele chords, country music ukulele chords, pop ukulele chords, world music ukulele chords, and rock ukulele chords here.

Rottenatomy by Gorguts Ukulele Chords

Gorguts – ‘Rottenatomy’
Considered Dead (1991)
Roadrunner Records

________________________________________________________________________________

Gtr I (Db Gb B E Ab Db) – ‘Luc Lemay’
Gtr II (Db Gb B E Ab Db) – ‘Sylvain Marcoux’
Gtr III (Db Gb B E Ab Db) – ‘Lead Guitar’

Q160
[3/4] Gtrs I, II
Wx5


|--------|
|--------|
|--------|
|--------|
|--------|
|--------|

Q160
PM–| PM PM–| PM
Q. E E E Q. Q E Q. E E E Q. Q E 4x


||-------------|-----------|------------|------------||
||o------------|-----------|------------|-----------o||
||--5----------|-4---------|-5----------|-4----------||
||--5----------|-4---------|-5----------|-4----------||
||o-3----5-6-5-|-2----4--5-|-3----5-6-5-|-2----4--5-o||
||-------3-4-3-|------2--3-|------3-4-3-|------2--3--||

Gtr I
PM–| PM PM–| PM
Q. E E E Q. Q E Q. E E E Q. Q E


||-------------|-----------|--------------|---------------||
||o------------|-----------|--------------|--------------o||
||--5----------|-4---------|-5------------|-4-------------||
||--5----------|-4---------|-5------------|-4-------------||
||o-3----5-6-5-|-2----4--5-|-3------5-6-5-|-2------4---5-o||
||-------3-4-3-|------2--3-|--------3-4-3-|--------2---3--||

|
| Gtr II


| PM--| PM----------------------------|

| Q. E E E Q. Q E E E E E E E E E E E E E


||-------------|-----------|--------------|---------------||
||o------------|-----------|--------------|--------------o||
||--5----------|-4---------|--------------|---------------||
||--5----------|-4---------|--------------|---------------||
||o-3----5-6-5-|-2----4--5-|-3--6-5-------|-2--3-2-----2-o||
||-------3-4-3-|------2--3-|--------3-4-3-|--------2-3----||

Gtrs I, II


PM----------------------------------------------|

S S S S S S S S S S S S S S S S S S S S S S S S 4x


||--------------------------|---------------------------||
||o-------------------------|--------------------------o||
||--------------------------|---------------------------||
||--------------------------|---------------------------||
||o-------------------------|--------------------------o||
||--0-0-0-0-0-0-2-2-2-2-2-2-|-1-1-1-1-1-1-2-2-2-2-3-3---||

PM–| PM PM–| PM
E Q E E E Q. Q E Q. E E E Q. Q E


|------------|-----------|------------|------------|
|------------|-----------|------------|------------|
|-5----------|-4---------|-5----------|-4----------|
|-5----------|-4---------|-5----------|-4----------|
|-3----5-6-5-|-2----4--5-|-3----5-6-5-|-2----4--5--|
|------3-4-3-|------2--3-|------3-4-3-|------2--3--|

PM–| PM PM–| PM
Q. E E E Q. Q E Q. E E E Q. Q E


|------------|-----------||-------------|-------------||
|------------|-----------||o------------|------------o||
|-5----------|-4---------||--5----------|-4-----------||
|-5----------|-4---------||--5----------|-4-----------||
|-3----5-6-5-|-2----4--5-||o-3----5-6-5-|-2----4--5--o||
|------3-4-3-|------2--3-||-------3-4-3-|------2--3---||
PM--------------------------------------------------| ~ PM--|

E E E E E E E E E E E E E E E E E E E S S E E E E


||--------------|--------------||-||--------------|----------------||
||o-------------|-------------o||-||o-------------|---------------o||
||--------------|--------------||-||--------------|----------------||
||--------------|--------------||-||--------------|----------------||
||o-3-6-5-------|-2-3-2-----2-o||-||o-3-6-5-------|-2-3p2h3-----2-o||
||--------3-4-3-|-------2-3----||-||--------3-4-3-|---------2-3----||

|


| PM----------------------------------------------------------|

| E E E E E E E E E E E E E E E E E E E S S E E E E


||--------------|--------------||-||--------------|----------------||
||o-------------|-------------o||-||o-------------|---------------o||
||--------------|--------------||-||--------------|----------------||
||--------------|--------------||-||--5-8-7-------|-4-5p4h5-----4--||
||o-3-6-5-------|-2-3-2-----2-o||-||o-------5-6-5-|---------4-5---o||
||--------3-4-3-|-------2-3----||-||--------------|----------------||

Gtrs I, II


PM----------------------------------------------|

S S S S S S S S S S S S S S S S S S S S S S S S 4x


||--------------------------|---------------------------||
||o-------------------------|--------------------------o||
||--------------------------|---------------------------||
||--------------------------|---------------------------||
||o-------------------------|--------------------------o||
||--0-0-0-0-0-0-2-2-2-2-2-2-|-1-1-1-1-1-1-2-2-2-2-3-3---||

Gtr I
PM–| PM PM–| PM
Q. E E E Q. Q E Q. E E E Q. Q E


|------------|-----------|--------------|---------------|
|------------|-----------|--------------|---------------|
|-5----------|-4---------|-5------------|-4-------------|
|-5----------|-4---------|-5------------|-4-------------|
|-3----5-6-5-|-2----4--5-|-3------5-6-5-|-2------4---5--|
|------3-4-3-|------2--3-|--------3-4-3-|--------2---3--|

|
| Gtr II


| PM--| PM----------------------------|

| Q. E E E Q. Q E E E E E E E E E E E E E


|------------|-----------|--------------|---------------|
|------------|-----------|--------------|---------------|
|-5----------|-4---------|--------------|---------------|
|-5----------|-4---------|--------------|---------------|
|-3----5-6-5-|-2----4--5-|-3--6-5-------|-2--3-2-----2--|
|------3-4-3-|------2--3-|--------3-4-3-|--------2-3----|

Gtrs I, II


PM-------------------------------------------------

S S S S S S S S S S S S S S S S S S S S S S S S


|-------------------------|-------------------------|
|-------------------------|-------------------------|
|-------------------------|-------------------------|
|-------------------------|-------------------------|
|-------------------------|-------------------------|
|-0-0-0-0-3-3-3-3-3-3-3-3-|-6-6-6-6-6-6-6-6-7-7-7-7-|
---------------|

S S S S S S S S Q H.


|--------------------|-------|
|--------------------|-------|
|--------------------|-------|
|--------------------|-------|
|-----------------2--|-------|
|-7-7-7-7-1-1-1-1-0--|-------|

Q170
[4/4] Gtr I


PM--------| PM--------------------|

E S S S S S S E S S S S E E S S S S E E E E E 4x


||----------------------------|----------------------||
||o---------------------------|---------------------o||
||----------------------------|----------------------||
||--7-------------7---------7-|-6-----------5-4-6-4--||
||o---5-5-5-5-5-5---5-5-5-5-5-|-4-4-4-4-4-4---------o||
||----------------------------|----------------------||

|
| Gtr II


| PM--------| PM--------------------|

| E S S S S S S E S S S S E E S S S S E E E E E 4x


||----------------------------|----------------------||
||o---------------------------|---------------------o||
||----------------------------|----------------------||
||----------------------------|----------------------||
||o-5-------------5---------5-|-4-----------3-2-4-3-o||
||--3-3-3-3-3-3-3-3-3-3-3-3-3-|-2-2-2-2-2-2----------||


||--------------|----------------|
||o-------------|----------------|
||--------------|----------------|
||--------------|----------------|
||o-2-----5-----|--4-----3-2-4-3-|
||--0-----3-----|--2-------------|

|
| Q Q Q Q +H E E E E


||--------------|----------------|
||o-------------|----------------|
||--------------|----------------|
||-----4-----3--|-(3)----3-2-4-3-|
||o-2--2--5--1--|-(1)------------|
||--0-----3-----|----------------|
PM----------------------------------------------|

S S S S S S S S S S S S S S S S S S S S S S S S E E E E


|---------------------------------|-----------------------------||
|---------------------------------|----------------------------o||
|---------------------------------|-----------------------------||
|---------------------------------|-----------------------------||
|---------------------------------|-----------------3-2-4-3----o||
|-0-0-0-0-0-0-0-0-3-3-3-3-3-3-3-3-|-2-2-2-2-2-2-2-2-------------||

|


| PM--------------------------------------------|

| E E E E E E E E E E E E E E E E


|---------------------------------|-----------------------------||
|---------------------------------|----------------------------o||
|---------------------------------|-----------------------------||
|---------------------------------|-----------------3-2-4-3-----||
|---------3---2-------1---2---1---|-----1---2---2--------------o||
|-0---0-----------3---------------|-2---------------------------||
PM----------------------| PM----------------------|


||------------------|-----------------|-----------------|-------------------||
||o-----------------|-----------------|-----------------|------------------o||
||------------------|-----------------|-----------------|-------------------||
||------------------|---------6-------|-----------------|---------6---------||
||o-5-5-5-5-5---5-5-|-4-4-4-4---7-6-7-|-5-5-5-5-5---5-5-|-4-4-4-4---7-6-7--o||
||--3-3-3-3---3-----|---2-2-2---------|-3-3-3-3---3-----|---2-2-2-----------||

|
| E E E E E E E E E E E E E E E E E E E E E E E E E E E E E E E E


||------------------|-----------------|-----------------|-------------------||
||o-----------------|-----------------|-----------------|------------------o||
||------------------|-----------------|-----------------|-------------------||
||----7-8-7---7-6---|---6---7---------|---7-8-7---7-6---|---6---7-----------||
||o-5-------5-----5-|-4---4---4-------|-5-------5-----5-|-4---4---4--------o||
||------------------|-----------5-4-5-|-----------------|-----------5-4-5---||

Gtr I


PM--------| PM--------------------|

E S S S S S S E S S S S E E S S S S E E E E E 4x


||----------------------------|----------------------||
||o---------------------------|---------------------o||
||----------------------------|----------------------||
||--7-------------7---------7-|-6-----------5-4-6-4--||
||o---5-5-5-5-5-5---5-5-5-5-5-|-4-4-4-4-4-4---------o||
||----------------------------|----------------------||

|
| Gtr II


| PM--------| PM--------------------|

| E S S S S S S E S S S S E E S S S S E E E E E 4x


||----------------------------|----------------------||
||o---------------------------|---------------------o||
||----------------------------|----------------------||
||----------------------------|----------------------||
||o-5-------------5---------5-|-4-----------3-2-4-3-o||
||--3-3-3-3-3-3-3-3-3-3-3-3-3-|-2-2-2-2-2-2----------||

[2/4] [3/4] PM–| PM–|
E E E E Q. Q. Q. E E E Q. Q. Q. E E E


|---------|-----------|------------|-----------|-------------|
|---------|-----------|------------|-----------|-------------|
|---------|-----------|------------|-----------|-------------|
|-4-3-5-4-|-----------|------------|-4----6----|-5----6-6-7--|
|---------|-2----4----|-3----4-4-5-|-2----4----|-3----4-4-5--|
|---------|-0----2----|-1----2-2-3-|-----------|-------------|

|
| PM–| PM–|
| E E E E Q. Q. Q. E E E Q. Q. Q. E E E


|---------|-----------|------------|-----------|-------------|
|---------|-----------|------------|-----------|-------------|
|---------|-----------|------------|-----------|-------------|
|---------|-----------|------------|-----------|-------------|
|-2-1-3-2-|-2----4----|-3----4-4-5-|-2----4----|-3----4-4-5--|
|---------|-0----2----|-1----2-2-3-|-0----2----|-1----2-2-3--|

[4/4]


PM------| PM----------| PM------|

Q. Q. Q. E E E E Q E E E E E E Q E E E E E


|-----------|------------|-----------------|-----------------|
|-5----7----|-8----------|-----------------|-----------------|
|-4----6----|-7----------|-----------------|-----------------|
|-2----4----|-5----------|---------4-------|---------4-------|
|-----------|------2-2---|-2-----5-2-5-4-5-|-3-----5-2-5-4-5-|
|-----------|----------1-|-0-----3---3-2-3-|-1-----3---3-2-3-|

|


| PM--------------------------------------|

| Q. Q. Q. E E E E E E E E E E E E E E E E E E E


|-----------|------------|-----------------|-----------------|
|-----------|------------|-----------------|-----------------|
|-----------|------------|-----------------|-----------------|
|-----------|------------|---------4-------|---------4-------|
|-2----4----|-3----4-4-5-|-------5-2-5-4-5-|-3-----5-2-5-4-5-|
|-0----2----|-1----2-2-3-|-0-0-0-3---3-2-3-|-1-1-1-3---3-2-3-|

Gtrs I, II


PM------------------------------|


|-----------------|-----------------|
|-----------------|-----------------|
|-----------------|-----------------|
|---------4-------|---------4-------|
|-2-2-2-5-2-5-4-5-|-3-3-3-5-2-5-4-5-|
|-0-0-0-3---3-2-3-|-1-1-1-3---3-2-3-|
PM--------------------------------------|

S S S S E E E E E E S S S S E E E E E E


||----------------------|----------------------||
||o---------------------|---------------------o||
||----------------------|----------------------||
||----------------------|----------------------||
||o-------------2-------|-------------2-------o||
||--0-0-0-0-0-3---3-2-3-|-1-1-1-1-1-3---3-2-3--||

Gtr I


PM--------------------------------------|

S S S S E E E E E E S S S S E E E E E E


||----------------------|----------------------||
||o---------------------|---------------------o||
||----------------------|----------------------||
||----------------------|----------------------||
||o-------------2-------|-------------2-------o||
||--0-0-0-0-0-3---3-2-3-|-1-1-1-1-1-3---3-2-3--||

|
| Gtr II


| PM--------------------------------------|

| S S S S E E E E E E S S S S E E E E E E


||----------------------|----------------------||
||o---------------------|---------------------o||
||----------------------|----------------------||
||--------------4-------|-------------4--------||
||o-2-2-2-2-2-5---5-4-5-|-3-3-3-3-3-5---5-4-5-o||
||----------------------|----------------------||
PM----------------------| PM----------------------|


|-----------------|-----------------|-----------------|-----------------|
|-----------------|-----------------|-----------------|-----------------|
|-----------------|-----------------|-----------------|-----------------|
|-------------5---|---------6-------|-------------5---|---------6-------|
|-5-5-5-5-5-5---5-|-4-4-4-4---7-6-7-|-5-5-5-5-5-5---5-|-4-4-4-4---7-6-7-|
|-3-3-3-3---3-----|-2-2-2-2---------|-3-3-3-3---3-----|-2-2-2-2---------|

|


| PM----------------------| PM----------------------|

| E E E E E E E E E E E E E E E E E E E E E E E E E E E E E E E E


|-----------------|-----------------|-----------------|-----------------|
|-----------------|-----------------|-----------------|-----------------|
|-----------------|-----------------|-----------------|-----------------|
|---7-8-7---7-6---|---6---7---------|---7-8-7---7-6---|---6---7---------|
|-5-------5-----5-|-4---4---4-------|-5-------5-----5-|-4---4---4-------|
|-----------------|-----------5-4-5-|-----------------|-----------5-4-5-|

W W W W


|-----------------|-----------------|-----------------|-----------------|
|-----------------|-----------------|-----------------|-----------------|
|-7---------------|-6---------------|-7---------------|-6---------------|
|-7---------------|-6---------------|-7---------------|-6---------------|
|-5---------------|-4---------------|-5---------------|-4---------------|
|-----------------|-----------------|-----------------|-----------------|

|


| PM----------------------| PM----------------------|

| E E E E E E E E E E E E E E E E E E E E E E E E E E E E E E E E


|-----------------|-----------------|-----------------|-----------------|
|-----------------|-----------------|-----------------|-----------------|
|-----------------|-----------------|-----------------|-----------------|
|---7-8-7---7-6---|---6---7---------|---7-8-7---7-6---|---6---7---------|
|-5-------5-----5-|-4---4---4-------|-5-------5-----5-|-4---4---4-------|
|-----------------|-----------5-4-5-|-----------------|-----------5-4-5-|

[ Tab from: http://www.guitartabs.cc/tabs/g/gorguts/rottenatomy_tab.html ]
W +H. Q


|----------|-------------|
|----------|-------------|
|----------|-------------|
|-6--------|-(6)---------|
|-4--------|-(4)------7--|
|----------|----------7--|

|
| W +H. Q


|----------|-------------|
|----------|-------------|
|----------|-------------|
|----------|----------9--|
|-4--------|-(4)------7--|
|-5--------|-(5)------7--|

W +H. Q W H. Q


|------------------|------------------|------------------|-----------------|
|------------------|------------------|------------------|-----------------|
|------------------|------------------|------------------|-----------------|
|------------------|------------------|------------------|-----------------|
|--6---------------|-(6)-----------7--|--6---------------|-5------------7--|
|--6---------------|-(6)-----------7--|--6---------------|-5------------7--|

|


| PM------------------------| ~ PM-----------------------| ~

| Q E E E E E E E E E E E E Q Q E E E E E E E E E E E E Q


|------------------|------------------|------------------|-----------------|
|------------------|------------------|------------------|-----------------|
|--------------3---|------------------|------------------|-----------------|
|---4-5-4-5---5-|--4----4----------|---4-5-4-------|-4----4----------|
|------------------|-----6---6-5-5-7--|------------6-5-6-|----6---6-5-5-7--|
|------------------|------------------|------------------|-----------------|

W +H. Q W H. Q


|------------------|------------------|------------------|-----------------|
|------------------|------------------|------------------|-----------------|
|------------------|------------------|------------------|-----------------|
|------------------|------------------|------------------|-----------------|
|--6---------------|-(6)-----------7--|--6---------------|-5------------7--|
|--6---------------|-(6)-----------7--|--6---------------|-5------------7--|

|


| PM------------------------| ~ PM-----------------------| ~

| Q E E E E E E E E E E E E Q Q E E E E E E E E E E E E Q


|------------------|------------------|------------------|-----------------|
|------------------|------------------|------------------|-----------------|
|--------------3---|------------------|------------------|-----------------|
|---4-5-4-5---5-|--4----4----------|---4-5-4-------|-4----4----------|
|------------------|-----6---6-5-5-7--|------------6-5-6-|----6---6-5-5-7--|
|------------------|------------------|------------------|-----------------|
PM------------------------| PM---------------| ~

Q E E E E E E E E E E E E Q Q E E E E E E E E E E Q Q


|----------------|------------------|----------------|----------------|
|----------------|------------------|----------------|----------------|
|----------------|--3--3------------|----------------|----------------|
|----4-4-5-5-----|-------4-4-5-5----|----4-4-5-5-----|------4h5p4-----|
|-6----------6-6-|---------------7--|-6----------6-6-|-5--5--------7--|
|-6--------------|---------------7--|-6--------------|-------------7--|

|
| W +H. Q W H. Q


|----------------|------------------|----------------|----------------|
|----------------|------------------|----------------|----------------|
|----------------|------------------|----------------|----------------|
|----------------|------------------|----------------|----------------|
|-6--------------|-(6)-----------7--|-6--------------|-5-----------7--|
|-6--------------|-(6)-----------7--|-6--------------|-5-----------7--|

Gtr I


PM------------------------| PM---------------| ~

Q E E E E E E E E E E E E Q Q E E E E E E E E E E Q Q


|----------------|------------------|----------------|----------------|
|----------------|------------------|----------------|----------------|
|----------------|--3--3------------|----------------|----------------|
|----4-4-5-5-----|-------4-4-5-5----|----4-4-5-5-----|------4h5p4-----|
|-6----------6-6-|---------------7--|-6----------6-6-|-5--5--------7--|
|-6--------------|---------------7--|-6--------------|-------------7--|

|
| Gtr II
| W +H. Q W H. Q


|----------------|------------------|----------------|----------------|
|----------------|------------------|----------------|----------------|
|----------------|------------------|----------------|----------------|
|----------------|------------------|----------------|----------------|
|-6--------------|-(6)-----------7--|-6--------------|-5-----------7--|
|-6--------------|-(6)-----------7--|-6--------------|-5-----------7--|

|
| Gtr III
| W W W H. Q


|----------------|------------------|----------------|----------------|
|----------------|------------------|----------------|----------------|
|----------------|------------------|----------------|-------------9--|
|----------------|------------------|----------------|----------------|
|----------------|------------------|----------------|----------------|
|----------------|------------------|----------------|----------------|

Gtrs I, II
PM–|
W +H +E E E E


|---------------------|---------------------|
|---------------------|---------------------|
|---------------------|---------------------|
|---------------------|---------------------|
|--6------------------|-(6)-------(6)-7-7-7-|
|--6------------------|-(6)-------(6)-7-7-7-|

|
| Gtr III
| Q E E E E E E E E E E E E Q


|---------------------|---------------------|
|---------------------|---------------------|
|-------10-11-10---|-----------------9---|
|------8-9----------9-|--8--9-8----7--------|
|---------------------|---------9-----9-----|
|---------------------|---------------------|

W H. Q


|---------------------|----------------|
|---------------------|----------------|
|---------------------|----------------|
|---------------------|----------------|
|--6------------------|-5-----------7--|
|--6------------------|-5-----------7--|

|
| PM—| ~~~~~~
| Q Q E E E E E E Q Q Q


|---------------------|----------------|
|---------------------|----------------|
|------10-11-10-11-|---------8--/9--|
|------8--------------|-9--8-7---------|
|---------------------|----------------|
|---------------------|----------------|

Gtrs I, II
PM–|
W +H +E E E E


|---------------------|---------------------|
|---------------------|---------------------|
|---------------------|---------------------|
|---------------------|---------------------|
|--6------------------|-(6)-------(6)-7-7-7-|
|--6------------------|-(6)-------(6)-7-7-7-|

|
| Gtr III
| Q E E E E E E E E E E E E Q


|---------------------|---------------------|
|---------------------|---------------------|
|-------10-11-10---|-----------------9---|
|------8-9----------9-|--8--9-8----7--------|
|---------------------|---------9-----9-----|
|---------------------|---------------------|

W H. Q


|---------------------|----------------|
|---------------------|----------------|
|---------------------|----------------|
|---------------------|----------------|
|--6------------------|-5-----------7--|
|--6------------------|-5-----------7--|

|
| PM—| ~~~~~~
| Q Q E E E E E E Q Q Q


|---------------------|----------------|
|---------------------|----------------|
|------10-11-10-11-|---------8------|
|------8--------------|-9--8-7-----/9--|
|---------------------|----------------|
|---------------------|----------------|

W +H. Q


|------------|-----------------------|
|------------|-----------------------|
|------------|-----------------------|
|------------|-----------------------|
|-6----------|-(6)----------------7--|
|-6----------|-(6)----------------7--|

|
| H H Q S S E Q Q


|------------|-----------------------|
|------11----|-12---11h12p11-10--11--|
|------------|-----------------------|
|-8----------|-----------------------|
|------------|-----------------------|
|------------|-----------------------|

W H. Q


|--------------------|------------------------|
|--------------------|------------------------|
|--------------------|------------------------|
|--------------------|------------------------|
|---6----------------|--5-----------------7---|
|---6----------------|--5-----------------7---|

|
| ~~~~
| Q Q Q Q Q +H Q


|----------------11--|-10b10.5r(10)----/14---|
|-/11--/11--/12------|------------------------|
|--------------------|------------------------|
|--------------------|------------------------|
|--------------------|------------------------|
|--------------------|------------------------|

W +H. Q


|-------------------------|--------------------------|
|-------------------------|--------------------------|
|-------------------------|--------------------------|
|-------------------------|--------------------------|
|--6----------------------|-(6)-----------------7----|
|--6----------------------|-(6)-----------------7----|

|
| E E E E E E E E E E E E E E E E


|-18-15-14----------18-15-|-14--------------------15-|
|----------15-16-15-------|-----15-16-15-------------|
|-------------------------|--------------16-15-16----|
|-------------------------|--------------------------|
|-------------------------|--------------------------|
|-------------------------|--------------------------|

W W


|----------------------|-------|
|----------------------|-------|
|----------------------|-------|
|----------------------|-------|
|--6-------------------|--5----|
|--6-------------------|--5----|

|
| ~~
| Q Q Q Q W


|-14b14.5----------15--|-14----|
|----------15--16------|-------|
|----------------------|-------|
|----------------------|-------|
|----------------------|-------|
|----------------------|-------|

Q210
Gtr I
~~~
W Q E E H


|-------------|-------------------|
|-------------|-------------------|
|-------------|-------------------|
|-------------|-------------------|
|---2---------|-6---6h7p6-----|
|---0---------|-4--(4)-(4)-(4)----|

|
| Gtr II
| W W


|-------------|-------------------|
|-------------|-------------------|
|-------------|-------------------|
|-------------|-------------------|
|---2---------|-6-----------------|
|---0---------|-4-----------------|

|
| Gtr III
| >
| ~~~~
| +W W


|-(14)--------|-------------------|
|-------------|-------------------|
|-------------|-------------------|
|-------------|-------------------|
|-------------|-------------------|
|-------------|-------------------|

Gtrs I, II


PM--------------------------------------------------|

Q E E S S S S S S S S S S S S S S S S S S S S S S S S


||-------------------------|---------------------------------|
||o------------------------|---------------------------------|
||-------------------------|---------------------------------|
||-------------------------|---------------------------------|
||o-2--2-2-3-3-3-3-6-6-6-6-|-5-5-5-5-5-5-5-5-5-5-5-5-5-5-5-5-|
||--0--0-0-----------------|---------------------------------|
PM--------------------------------------------------|

Q E E S S S S S S S S S S S S S S S S S S S S S S S S


|------------------------|----------------------------------||
|------------------------|---------------------------------o||
|------------------------|----------------------------------||
|------------------------|----------------------------------||
|-2--2-2-3-3-3-3---------|---------------------------------o||
|-0--0-0---------3-3-3-3-|-4-4-4-4-4-4-4-4-2-2-2-2-2-2-2-2--||

Gtr I


PM---------------------------------------------------|

Q S S E S S S S S S S S S S S S S S S S S S S S S S S S


|--------------------------|----------------------------------|
|--------------------------|----------------------------------|
|--------------------------|----------------------------------|
|--------------------------|----------------------------------|
|-2--------3-3-3-3-6-6-6-6-|-5-5-5-5-5-5-5-5-5-5-5-5-5--5-5-5-|
|-0--0-0-0-----------------|----------------------------------|

|
| Gtr II


| PM----------------------------------------------|

| Q E E S S S S S S S S S S S S S S S S S S S S Q


|--------------------------|----------------------------------|
|--------------------------|----------------------------------|
|--------------------------|-----------------5-5-5-5-5-------|
|----------5-5-5-5-8-8-8-8-|-7-7-7-7-7-7-7-7------------------|
|-2--2---2-----------------|----------------------------------|
|-0--0---0-----------------|----------------------------------|
PM--------------------------------------------------|

Q S S E S S S S S S S S S S S S S S S S S S S S S S S S


|--------------------------|---------------------------------|
|--------------------------|---------------------------------|
|--------------------------|---------------------------------|
|--------------------------|---------------------------------|
|-2--------3-3-3-3---------|---------------------------------|
|-0--0-0-0---------3-3-3-3-|-4-4-4-4-4-4-4-4-2-2-2-2-2-2-2-2-|

|


| PM----------------------------------------------------|

| Q E E S S S S S S S S S S S S S S S S S S S S S S S S


|--------------------------|---------------------------------|
|--------------------------|---------------------------------|
|--------------------------|---------------------------------|
|--------------------------|---------------------------------|
|-2--2---2-3-3-3-3---------|---------------------------------|
|-0--0---0---------3-3-3-3-|-4-4-4-4-4-4-4-4-2-2-2-2-2-2-2-2-|

Q Q Q Q Q Q Q Q Q Q Q Q Q Q Q Q


||--------------|-------------|-------------|---------------||
||o-------------|-------------|-------------|--------------o||
||-----5--4-----|----7-----5--|----5--4-----|----7-----5----||
||--4--3--2--5--|-7--5--3--3--|-4--3--2--5--|-7--5--3--3----||
||o-2--------3--|-5-----1-----|-2--------3--|-5-----1------o||
||--------------|-------------|-------------|---------------||

|
| W H H W H H


||--------------|-------------|-------------|---------------||
||o-------------|-------------|-------------|--------------o||
||--------------|-------------|-------------|---------------||
||--4-----------|-7-----3-----|-4-----------|-7-----3-------||
||o-2-----------|-5-----1-----|-2-----------|-5-----1------o||
||--------------|-------------|-------------|---------------||

Gtrs I, II


PM--------------------------------------------------|

Q E E S S S S S S S S S S S S S S S S S S S S S S S S


||-------------------------|---------------------------------|
||o------------------------|---------------------------------|
||-------------------------|---------------------------------|
||-------------------------|---------------------------------|
||o-2--2-2-3-3-3-3-6-6-6-6-|-5-5-5-5-5-5-5-5-5-5-5-5-5-5-5-5-|
||--0--0-0-----------------|---------------------------------|
PM--------------------------------------------------|

Q E E S S S S S S S S S S S S S S S S S S S S S S S S


|------------------------|----------------------------------||
|------------------------|---------------------------------o||
|------------------------|----------------------------------||
|------------------------|----------------------------------||
|-2--2-2-3-3-3-3---------|---------------------------------o||
|-0--0-0---------3-3-3-3-|-4-4-4-4-4-4-4-4-2-2-2-2-2-2-2-2--||

H Q Q W H Q Q H H


|------------|----------|------------|-----------|
|------------|----------|------------|-----------|
|------------|----------|------------|-----------|
|------5--8--|-7--------|------5-----|-----------|
|-2----3--6--|-5--------|-2----3--5--|-6----3----|
|-0----------|----------|-0-------3--|-4----1----|

W +W W +W


|----------|------------|----------|--------|
|----------|------------|----------|--------|
|----------|------------|----------|--------|
|-4--------|-(4)--------|-4--------|-(4)----|
|-2--------|-(2)--------|-2--------|-(2)----|
|----------|------------|----------|--------|

Q Q Q Q Q Q Q Q Q Q Q Q Q Q Q Q


||--------------|-------------|-------------|---------------||
||o-------------|-------------|-------------|--------------o||
||--------------|-------------|-------------|---------------||
||-----3--2-----|----5-----3--|----3--2-----|----5-----3----||
||o-2--------3--|-5-----1-----|-2--------3--|-5-----1------o||
||--------------|-------------|-------------|---------------||

|
| W H H W H H


||--------------|-------------|-------------|---------------||
||o-------------|-------------|-------------|--------------o||
||--------------|-------------|-------------|---------------||
||--4-----------|-7-----3-----|-4-----------|-7-----3-------||
||o-2-----------|-5-----1-----|-2-----------|-5-----1------o||
||--------------|-------------|-------------|---------------||

Q170
[3/4] PM–| PM–|
Q. Q. Q. E E E Q. Q. Q. E E E


|-----------|------------|-----------|------------|
|-----------|------------|-----------|------------|
|-----------|------------|-----------|------------|
|-----------|------------|-4----6----|-5----6-6-7-|
|-2----4----|-3----4-4-5-|-2----4----|-3----4-4-5-|
|-0----2----|-1----2-2-3-|-----------|------------|

|
| PM–| PM–|
| Q. Q. Q. E E E Q. Q. Q. E E E


|-----------|------------|-----------|------------|
|-----------|------------|-----------|------------|
|-----------|------------|-----------|------------|
|-----------|------------|-----------|------------|
|-2----4----|-3----4-4-5-|-2----4----|-3----4-4-5-|
|-0----2----|-1----2-2-3-|-0----2----|-1----2-2-3-|

[4/4]


PM------|

Q. Q. Q. E E E Q H.


|-----------|------------|----------|
|-5----7----|-8----------|----------|
|-4----6----|-7----------|----------|
|-2----4----|-5----------|----------|
|-----------|------2-2---|-2--------|
|-----------|----------1-|-0--------|

|


| PM------|

| Q. Q. Q. E E E Q H.


|-----------|------------|----------|
|-----------|------------|----------|
|-----------|------------|----------|
|-----------|------------|----------|
|-2----4----|-3----4-4-5-|-2--------|
|-0----2----|-1----2-2-3-|-0--------|

End.

To play the this songs, including Rottenatomy by Gorguts by ukulele, the most important basic ukulele chords to learn are C chord, D chord, G chord, and Em chord.
These set you up to play a ton of songs, and each of them is easy to master.

Gravatar Image
Like to play Ukulele and Sudoku Game

Leave a Reply

Your email address will not be published. Required fields are marked *