Run for the Night by Blind Guardian Ukulele Chords

Posted on

If you are searching for Run for the Night ukulele chords, you’ve visit to the best site.
You can play versatile instrument Run for the Night using ukulele or guitar.
This song by Blind Guardian can also be played by that instruments.
=

Run for the Night chords has rhythm and included in Battalions of Fear (1988) album.
You can also find another musical style, including jazz ukulele chords, country music ukulele chords, pop ukulele chords, world music ukulele chords, and rock ukulele chords here.

Run for the Night by Blind Guardian Ukulele Chords

Intro x3

|---------------------------------|-------||
|---------------------------------|-------||
|---------------------------------|-------||
|-7-------------------------------|-9-7-9-||
|-5-4-4-4-4-4-4-4-4-4-4-4-4-4-4---|-7-5-7-||
|---------------------------------|-------||

P.M……………………)

Riff A


|--------------------------------|--------------------------------|
|--------------------------------|--------------------------------|
|-------------------------------|--------------------------------|
|-9-----------------------------|------------------------------7-|
|--7-7-7-7-7-7-7-7-7-7-7-7-7-7-7-|-7-7-7-7-7-7-7-7-7-7-7-7-7-7--5-|
|--------------------------------|--------------------------------|

P.M……………………………………………….)


|-------------------------------|-------------------------------|
|-------------------------------|-------------------------------|
|-------------------------------|-------------------------------|
|-5-----------------------------|--------------------------5--4-|
|-3-3-3-3-3-3-3-3-3-3-3-3-3-3-3-|-3-3-3-3-3-3-3-3-3-3-3-3--3--2-|
|-------------------------------|-------------------------------|

P.M…………………………………………..)


|---------------------------------|-------------------------------|
|---------------------------------|-------------------------------|
|---------------------------------|-------------------------------|
|-2-------------------------------|-----------------------------2-|
|-0-0-0-0-0-0-0-0-0-0-0-0-0-0-0-0-|-0-0-0-0-0-0-0-0-0-0-0-0-0-0-0-|
|---------------------------------|-------------------------------|

P.M………………………………………………..)


|------------|-------------|
|------------|-------------|
|------------|------------|
|-12--11--12-|-14--12--11-|
|-10--9---10-|-12--10--9---|
|------------|-------------|

Riff B


|--------------------------------|-------------------------------|
|--------------------------------|-------------------------------|
|-------------------------------|-------------------------------|
|-6-----------------------------|-----------------------------4-|
|--4-4-4-4-4-4-4-4-4-4-4-4-4-4-4-|-4-4-4-4-4-4-4-4-4-4-4-4-4-4-2-|
|--------------------------------|-------------------------------|

P.M………………………………………………)


|-------------------------------|----|---------|-----------|
|-------------------------------|----|---------|-----------|
|-------------------------------|----|---------|----------|
|-2---------------------------4-|-6-|-9--8--9-|-11--9--8-|
|-0-0-0-0-0-0-0-0-0-0-0-0-0-0-2-|-4-|-7--6--7-|-9---7--6--|
|-------------------------------|----|---------|-----------|

P.M…………………)


|-------------------------------|--------------------------------|
|-------------------------------|--------------------------------|
|-------------------------------|--------------------------------|
|-9-----------------------------|------------------------------7-|
|-7-7-7-7-7-7-7-7-7-7-7-7-7-7-7-|-7-7-7-7-7-7-7-7-7-7-7-7-7-7--5-|
|-------------------------------|--------------------------------|

P.M………………………………………………)


|-------------------------------|-------------------------------|
|-------------------------------|-------------------------------|
|-------------------------------|-------------------------------|
|-5-----------------------------|--------------------------5--4-|
|-3-3-3-3-3-3-3-3-3-3-3-3-3-3-3-|-3-3-3-3-3-3-3-3-3-3-3-3--3--2-|
|-------------------------------|-------------------------------|

P.M………………………………………….)


|-------------------------------|---------------------------------|
|-------------------------------|---------------------------------|
|-------------------------------|---------------------------------|
|-2-----------------------------|---------------------------------|
|-0-0-0-0-0-0-0-0-0-0-0-0-0-0-0-|-0-0-0-0-0-0-0-0-0-0-0-0-0-0-0-0-|
|-------------------------------|---------------------------------|

P.M…………………………………………………)


|------------|------------||
|------------|------------||
|------------|------------||
|-12--11--12-|-14--12--11-||
|-10--9---10-|-12--10--9--||
|------------|------------||

Riff C with fill (high fret notes)


|---|-----|---|-----|---|-----------|------------|----------------|
|---|-----|---|-----|---|-15fb 15fb-|-13-12----12|-----------tr---|
|---|-----|---|-----|---|-----------|-------14---|-12-14--11h12p11|
|-9-|-(9)-|-7-|-(7)-|-5-|-(5)-------|-7----------|-12------11-----|
|-7-|-(7)-|-5-|-(5)-|-3-|-(3)-------|-5----------|-10------9------|
|---|-----|---|-----|---|-----------|------------|----------------|

Run for the night….


|------|------|------|------|------|------|------|--------||
|------|------|------|------|------|------|------|--------||
|-14~--|------|------|------|------|------|------|--------||
|-9----|-(9)--|-7----|-(7)--|-5----|-(5)--|-7----|-12--11-||
|-7----|-(7)--|-5----|-(5)--|-3----|-(3)--|-5----|-10--9--||
|------|------|------|------|------|------|------|--------||

Riff D


|-----------------------------|-----------------------------|
|-----------------------------|-----------------------------|
|-----------------------------|-------------------------7-6-|
|-5-------5-------5-------5-4-|-7-------7-------7-------5-4-|
|-3-3-3-3-3-3-3-3-3-3-3-3-3-2-|-5-5-5-5-5-5-5-5-5-5-5-5-----|
|-----------------------------|-----------------------------|

P.M.. ….. ….. ….. ….. …..)


|-----------------------------|-----------------------||
|-----------------------------|-----------------------||
|-----------------------------|-----------------7---6-||
|-5-------5-------5-------5-4-|-7-------7-------5---4-||
|-3-3-3-3-3-3-3-3-3-3-3-3-3-2-|-5-5-5-5-5-5-5-5-------||
|-----------------------------|-----------------------||

P.M.. ….. ….. ….. ….)

Riff E


|---------------------------------|--------------------------|
|---------------------------------|--------------------------|
|---------------------------------|--------------------------|
|-5-------------------------------|------------------5---4---|
|-3-3-3-3-3-3-3-3-3-3-3-3-3-3-3-3-|-3-3-3-3-3-3-3-3--3-3-2-2-|
|---------------------------------|--------------------------|

P.M……………………………………… .. ..)


|---------------------------------|--------------------------|
|---------------------------------|--------------------------|
|---------------------------------|------------------7---6---|
|-7-------------------------------|------------------5-5-4-4-|
|-5-5-5-5-5-5-5-5-5-5-5-5-5-5-5-5-|-5-5-5-5-5-5-5-5----------|
|---------------------------------|--------------------------|

P.M…………………………………….. .. ..)


|---------------------------------|--------------------------|
|---------------------------------|--------------------------|
|---------------------------------|--------------------------|
|-5-------------------------------|------------------5---4---|
|-3-3-3-3-3-3-3-3-3-3-3-3-3-3-3-3-|-3-3-3-3-3-3-3-3--3-3-2-2-|
|---------------------------------|--------------------------|

P.M……………………………………… .. ..)


|---------------------------------|--------------------|
|---------------------------------|--------------------|
|---------------------------------|-7--6--------------|
|-7-------------------------------|-5--4-----(7)-------|
|-5-5-5-5-5-5-5-5-5-5-5-5-5-5-5-5-|----------(5)-------|
|---------------------------------|--------------------|

P.M…………………….) 2nd time only

Riff F


|-------------------------------|-------|----------------------------------|
|-------------------------------|-------|----------------------------------|
|-------------------------------|-------|----------------------------------|
|-9-----------------------------|-9-7-9-|-12-------------------------------|
|-7-7-7-7-7-7-7-7-7-7-7-7-7-7-7-|-7-5-7-|-10-10-10-10-10-10-10-10-10-10-10-|
|-------------------------------|-------|----------------------------------|

P.M…………………… ……………………….)


|----------|-----------------------------------|---------|
|----------|-----------------------------------|---------|
|----------|-----------------------------------|---------|
|-14-12-11-|-12-11-9---------------------------|-9--7--9-|
|-12-10-9--|-10-9--7-7-7-7-7-7-7-7-7-7-7-7-7-7-|-7--5--7-|
|----------|-----------------------------------|---------|

P.M………………….)


|-------------------------------|---------------------------------||
|-------------------------------|---------------------------------||
|-------------------------------|---------------------------------||
|-5-----------------5-----------|-4---------------7---------------||
|-3-3-3-3-3-3-3-3-3-3-3-3-3-3-3-|-2-2-2-2-2-2-2-2-5-5-5-5-5-5-5-5-||
|-------------------------------|---------------------------------||

P.M………… ……… …………. ………….)

Riff G
half tempo


|---------|---------|---------|---------|---|-----|---|-----||
|---------|---------|---------|---------|---|-----|---|-----||
|---------|---------|---------|---------|---|-----|---|-----||
|---------|---------|---------|---------|-5-|-(5)-|-7-|-(7)-||
|-2-2-2-2-|-2-2-2-2-|-2-2-2-2-|-2-2-2-2-|-3-|-(3)-|-5-|-(5)-||
|-0-0-0-0-|-0-0-0-0-|-0-0-0-0-|-0-0-0-0-|---|-----|---|-----||

Solo


|-------||------|---|---|-15fb~-12|-17-12-12-12-17-12-12-12-|
|-12-15-||-15fb-|---|---|---------|-------------------------|
|-------||--{{--|---|---|---------|-------------------------|
|-------||------|-|-|---------|-------------------------|
|-------||------|---|---|---------|-------------------------|
|-------||------|---|---|---------|-------------------------|
|-17-12-12-12-17-12-12-12-|-17fb--17fb--17fb-|-17fb~-15-|
|-------------------------|------------------|----------|
|-------------------------|------------------|----------|
|-------------------------|------------------|----------|
|-------------------------|------------------|----------|
|-------------------------|------------------|----------|
|-19-15----15-17-15----15-|---|---|-20fb~-|-19-17-15-|-17-15-14-|
|-------17----------17----|---|---|-------|----------|----------|
|-------------------------|---|---|-------|----------|----------|
|-------------------------|-|-|-------|----------|----------|
|-------------------------|---|---|-------|----------|----------|
|-------------------------|---|---|-------|----------|----------|
|-15-17-15-|-----17-15-|-14-15-----|------17-15-|-14-15--------|
|----------|-17~-------|-------17~-|-(17)-------|-------15~----|
|----------|-----------|-----------|------------|--------------|
|----------|-----------|-----------|------------|-----------14-|
|----------|-----------|-----------|------------|--------------|
|----------|-----------|-----------|------------|--------------|
|----------|----------|----------|----------|-----|---------------|
|-13-12----|-15-13-12-|-13-12----|----------|-----|---------------|
|-12-11-14-|-14-12-11-|-12-11-14-|-12-11-12-|-12~-|-(12)-12-14-16-|
|-------14-|----------|-------14-|-12----12-|-14~-|-(14)-14-16-17-|
|----------|----------|----------|----14----|-----|---------------|
|----------|----------|----------|----------|-----|---------------|
|-----|---------------|-----|------------|-------------------|
|-----|---------------|-----|------12-13-|-15-13h15p13-12----|
|-14~-|-(14)-14-12-11-|-12~-|-(12)-11-12-|-14-12h14p12-11-14-|
|-16~-|-(16)-14-12-14-|-14~-|-(14)-------|----------------14-|
|-----|---------------|-----|------------|-------------------|
|-----|---------------|-----|------------|-------------------|
|-------------|-----|---------------|---------|------------|
|-12----------|-----|------12h15p12-|-15fb-15-|-12~-15-----|
|-11-14-12-11-|-12~-|-(12)--11-12---|-11------|-(11)-------|
|----14-12-11-|-14--|-(14)----------|---------|------14-12-|
|-------------|-----|---------------|---------|------------|
|-------------|-----|---------------|---------|------------|
|---------------------|-----------|--T--------T--------T--------T-------|
|-15fb-15fb-15fb-15fb-|-15fb~--12-|-19p15p12-20p15p12-19p15p12-20p15p12-|
|---------------------|-----------|-------------------------------------|
|-10~-----------------|-----------|-------------------------------------|
|---------------------|-----------|-------------------------------------|
|---------------------|-----------|-------------------------------------|
|--T--------T--------T-----||

|-19p15p12-20p15p12-19p12~-||


|--------------------------||
|--------------------------||
|--------------------------||
|--------------------------||

Outro Solo (starts at fill from Riff C)


|-----------|------------|-----------------|-----|---------------|
|-15fb 15fb-|-13-12----12|-----------tr----|-----|---------------|
|-----------|-------14---|-12-14--11h12p11-|-----|---------11-12-|
|-----------|------------|-----------------|-14~-|-(14)-14-------|
|-----------|------------|-----------------|-----|---------------|
|-----------|------------|-----------------|-----|---------------|
|-----|------------|-----|------|----------------------|-------------------|
|-----|------------|-----|------|----------------------|----12-12h13-12----|
|-11~-|-(11)-------|-----|------|----11-12-11----11-12-|-14-------------12-|
|-----|------14-12-|-10~-|-(10)-|-14----------14-------|-------------------|
|-----|------------|-----|------|----------------------|-------------------|
|-----|------------|-----|------|----------------------|-------------------|
|-----|------------|-----|------------|-----|------------|
|-----|------------|-----|------------|-----|------12-13-|
|-----|------11-12-|-11~-|-(11)-------|-----|------------|
|-14~-|-(14)-------|-----|------14-12-|-14~-|-(14)-------|
|-----|------------|-----|------------|-----|------------|
|-----|------------|-----|------------|-----|------------|
|-------------------|-------------|-----|------------|-----|------------|
|-15-13h15p13-12----|-12----------|-----|------------|-----|------------|
|----------------14-|----14-12-11-|-12~-|-(12)-11-12-|-11~-|-(11)-------|
|-------------------|-------------|-----|------------|-----|------14-12-|
|-------------------|-------------|-----|------------|-----|------------|
|-------------------|-------------|-----|------------|-----|------------|
|--------|--------|--------------|-------------||
|--------|--------|-------12-13--|-15fb~-(15)r-||
|--------|-----11-|-12-14-{{-{{--|-------------||
|-10--12-|-14--{{-|-{{-{{--------|-------------||
|-{{--{{-|-{{-----|--------------|-------------||
|--------|--------|--------------|-------------||

Coda


|-------------------------------|-------|----------------------------------|
|-------------------------------|-------|----------------------------------|
|-------------------------------|-------|----------------------------------|
|-9-----------------------------|-9-7-9-|-12-------------------------------|
|-7-7-7-7-7-7-7-7-7-7-7-7-7-7-7-|-7-5-7-|-10-10-10-10-10-10-10-10-10-10-10-|
|-------------------------------|-------|----------------------------------|

P.M…………………… ……………………….)


|----------|-----------------------------------|---------|
|----------|-----------------------------------|---------|
|----------|-----------------------------------|---------|
|-14-12-11-|-12-11-9---------------------------|-9--7--9-|
|-12-10-9--|-10-9--7-7-7-7-7-7-7-7-7-7-7-7-7-7-|-7--5--7-|
|----------|-----------------------------------|---------|

P.M………………….)


|-------------------------------|---------------------------------|
|-------------------------------|---------------------------------|
|-------------------------------|---------------------------------|
|-5-----------------5-----------|-4---------------7---------------|
|-3-3-3-3-3-3-3-3-3-3-3-3-3-3-3-|-2-2-2-2-2-2-2-2-5-5-5-5-5-5-5-5-|
|-------------------------------|---------------------------------|

P.M………… ……… …………. ………….)

half tempo


|---|----|----|---------|----||
|---|----|----|---------|----||
|---|----|----|---------|----||
|-9-|-12-|-5--|--------|-9--||
|-7-|-10-|-3--|-10-\---|-7--||
|---|----|----|-{{------|----||

P.M..) slide down neck while tremolo picking

Song Structure
Intro – intro x6
Verse 1 – with Riff A
Verse 2 – with Riff B
Chorus – with Riff C
Interlude – with intro
Verse 3 – with Riff A
Verse 2
Chorus 1
Interlude – with Riff D
Verse 4 – with Riff E
Chorus 2 – with Riff F
Interlude – with Riff F, Riff G
Solo
Chorus 1 (x2) – with outro solo
Coda – with coda

The End.
Enjoy!

To play the this songs, including Run for the Night by Blind Guardian by ukulele, the most important basic ukulele chords to learn are C chord, D chord, G chord, and Em chord.
These set you up to play a ton of songs, and each of them is easy to learn.

Gravatar Image
Like to play Ukulele and Sudoku Game

Leave a Reply

Your email address will not be published. Required fields are marked *