Running Like the Wind by The Marshall Tucker Band Ukulele Chords

Posted on

If you are searching for Running Like the Wind ukulele chords, you’ve come to the right site.
You can play versatile instrument Running Like the Wind using ukulele or guitar.
This song by The Marshall Tucker Band can also be played by that instruments.
=

Running Like the Wind chords has rhythm and included in Running Like the Wind (1979) album.
You can also find another musical style, including jazz ukulele chords, country music ukulele chords, pop ukulele chords, world music ukulele chords, and rock ukulele chords here.

Running Like the Wind by The Marshall Tucker Band Ukulele Chords

The Marshall Tucker Band
>From the Album-“Running Like The Wind”
Written by Toy Caldwell
Tabbed by Ray Scheidler

Chords:


E-------------------------------------------------
B---------1----------------------1----------------
G---------2----------------------2----------------
D---------2----------------------3----------------
A--------------------2----------------------------
E--------------------3----------------------------

Intro:


E-------------------------------------------------
B-------------------------------(5)-5-------------
G-------------4--5--4-----5--7----------7--5--(4)-
D--7--5--7----------------------------------------
A-------------------------------------------------
E-------------------------------------------------


E-------------------------------------------------
B-------------------------------------------------
G--4-------------4--5--4--------------------------
D------7--5--7--------------7--5---------------5--
A----------------------------------7-----5--7-----
E-------------------------------------------------


E------------------------7--8--7---8--10--(12)-12-
B-----------10--8--10-----------------------------
G-------------------------------------------------
D----5--7-----------------------------------------
A-7-----------------------------------------------
E-------------------------------------------------


E--10--8--(7)--------------7--8--7----------------
B--------------10--8--10-------------10--8--------
G--------------------------------------------(9)--
D-------------------------------------------------
A-------------------------------------------------
E-------------------------------------------------

Fill:


E-------------------------------------------------
B-------------------------------------------------
G-------------2---4-----5----4---2----------------
D----3---5-----------------------------5----------
A-------------------------------------------------
E-------------------------------------------------

I say..how can you say

Where I’ll be from day to day

When I don’t even know myself

But the life that I lead

Is so full of mysteries

That’s why I’m always on my way

And I’ll be running like the wind

Am G6 Fmaj7 + Fill
Running like the wind

The words you’re about to hear

Even to me they’re not very clear

You see love has never come my way

But come and fly with me

Through life’s many fantasies

And I’ll show you a new dream every day

And I’ll be running like the wind

Running like the wind

And you’ll never hear us say

We might be back again someday

Fmaj7 G6 Fmaj7 + Fill
Well we won’t…We’ll be running like the wind

I’m sure in your mind

That you vision this paradise

A place we could live for evermore

So let’s search wide and far

For a mountain or that shooting star

A sign that might show us the way

And we’ll be running like the wind

Running like the wind

And you’ll never hear us say

That we might be back again someday

Fmaj7 G6 Fmaj7 + Fill
Well we won’t…We’ll be running like the wind

Intro Riff + Solo: Am G6 Fmaj7 Am G6 Fmaj7

One day you’ll realize

As you look into my aging eyes

You’ll hold my hand and you’ll say

That you’ll always drift my way

Like two leaves blowing on an autumn day

And love me as long as there’s wind in the sky

And I’ll be running like the wind

Running like the wind

And you’ll never hear us say

That we might be back again someday

Well we won’t..We’ll be running like the wind

Running like the wind

Running like the wind

Running Like the wind

To play the most songs, including Running Like the Wind by The Marshall Tucker Band by ukulele, the most crucial basic ukulele chords to learn are C chord, D chord, G chord, and Em chord.
These set you up to play a many of songs, and each of them is easy to learn.

Leave a Reply

Your email address will not be published.