San Dimas High School Football Rules by The Ataris Ukulele Chords

Posted on

If you are looking for San Dimas High School Football Rules ukulele chords, you already visit to the best site.
You can play versatile instrument San Dimas High School Football Rules using ukulele or guitar.
This song by The Ataris can also be played by that instruments.
=

San Dimas High School Football Rules chords has rhythm and included in Blue Skies, Broken Hearts…Next 12 Exits (1999) album.
You can also get other musical style, including jazz ukulele chords, country music ukulele chords, pop ukulele chords, world music ukulele chords, and rock ukulele chords here.

San Dimas High School Football Rules by The Ataris Ukulele Chords


Song: San Dimas High School Football Rules (Acoustic)
Band: The Ataris
Album: Let it Burn (Ataris/Useless ID Split)
Label: Kung Fu Records
Tabbed By: Donahue2

There’s a guitar, a piano and a violin in this song, but I’m tabbing the piano
and violin out for guitar. It’s not rocket science. There’s alot of tabs for
this song and only one good one: This one. Yeah, I’m cocky. Wanna fight about it?
This song sucks and I’m only tabbing it to prove that I’m better than it.

Tuning: Standard (EADGBe)

INTRO/VERSE: (Guitar)


e|--x-x-x--0-00-00-0-0-00-0-0-0--0-00-00-0-0-00-0-0-0--1-11-11-1-1-11-1-1-1--|
B|--x-x-x--1-11-11-1-1-11-1-1-1--0-00-00-0-0-00-0-0-0--1-11-11-1-1-11-1-1-1--|
G|--x-x-x--0-00-00-0-0-00-0-0-0--1-11-11-1-1-11-1-1-1--2-22-22-2-2-22-2-2-2--|
D|--x-x-x--2-22-22-2-2-22-2-2-2--2-22-22-2-2-22-2-2-2--3-33-33-3-3-33-3-3-3--|
A|--x-x-x--3-33-33-3-3-33-3-3-3--2-22-22-2-2-22-2-2-2--3-33-33-3-3-33-3-3-3--|
E|--x-x-x--0-00-00-0-0-00-0-0-0--0-00-00-0-0-00-0-0-0--1-11-11-1-1-11-1-1-1--|


e|--1-11-11-1-1-11-1-1-1--|
B|--0-00-00-0-0-00-0-0-0--|
G|--0-00-00-0-0-00-0-0-0--|X4
D|--0-00-00-0-0-00-0-0-0--|
A|--2-22-22-2-2-22-2-2-2--|
E|--3-33-33-3-3-33-3-3-3--|

PIANO:


e|------------------------------------------------------------------------------|
B|------------------------------------------------------------------------------|
G|------------------------------------------------------------------------------|
D|--10-9-----10-9-------10-9--------------------------------------10-9----10-9--|
A|-------10-------10----8-----10-10h12-10-12--7-8-10----7-8-10----8----10-------|
E|--8--------7-------8------------------------8------8--7------7----------------|
e|---------|
B|---------|
G|---------|
D|---------|
A|------7--|
E|--8-8-8--|

(And on the fourth time) VIOLIN:


e|-------------------|
B|-------------------|
G|-------------------|
D|---------3~--------|
A|--3~-----3~--------|
E|------4~----3~-4~--|

“Last night, I had a dream
That we went to Disney land
And went on all the rides – didn’t have to wait in line.
I took you to your house where we stared up at the stars,
I listened to your heartbeat as I held you in my arms.”

CHORUS:


e|--0-0-00-0-0-00-00--1-1-11-1-1-11-11--0-0-00-0-0-00-00--0-0-00-0-0-00-00--|
B|--1-1-11-1-1-11-11--1-1-11-1-1-11-11--1-1-11-1-1-11-11--0-0-00-0-0-00-00--|
G|--2-2-22-2-2-22-22--2-2-22-2-2-22-22--0-0-00-0-0-00-00--0-0-00-0-0-00-00--|X2
D|--2-2-22-2-2-22-22--3-3-33-3-3-33-33--2-2-22-2-2-22-22--2-2-22-2-2-22-22--|
A|--0-0-00-0-0-00-00--3-3-33-3-3-33-33--3-3-33-3-3-33-33--2-2-22-2-2-22-22--|
E|--0-0-00-0-0-00-00--1-1-11-1-1-11-11--0-0-00-0-0-00-00--0-0-00-0-0-00-00--|


e|--1-1-11-1-1-11-11--3-3-33-3-3-33-33--0-0-000--3-33-333--1-1-111--3-33-333--|
B|--1-1-11-1-1-11-11--3-3-33-3-3-33-33--1-1-111--0-00-000--1-1-111--0-00-000--|
G|--2-2-22-2-2-22-22--4-4-44-4-4-44-44--0-0-000--0-00-000--2-2-222--0-00-000--|
D|--3-3-33-3-3-33-33--5-5-55-5-5-55-55--2-2-222--0-00-000--3-3-333--0-00-000--|
A|--3-3-33-3-3-33-33--5-5-55-5-5-55-55--3-3-333--2-22-222--3-3-333--2-22-222--|
E|--1-1-11-1-1-11-11--3-3-33-3-3-33-33--0-0-000--3-33-333--1-1-111--3-33-333--|


e|--1-1-1-1-11-11-11-11--3~--|
B|--1-1-1-1-11-11-11-11--3~--|
G|--2-2-2-2-22-22-22-22--4~--|
D|--3-3-3-3-33-33-33-33--5~--|
A|--3-3-3-3-33-33-33-33--5~--|
E|--1-1-1-1-11-11-11-11--3~--|

VIOLIN: (Finger pick it, There’s no other way)


e|------------------------------------------------------------------------|
B|-------------------------------------------------1----1-0---0-1---1-3---|
G|----------------------------------------------------0-----1-----2-------|
D|----------0-2~--0~--3-2~------5-3-2-0~--3~--2-0-------------------------|
A|--0~--3~------------------3~---------------------3~-----------0~--------|
E|--------------------------------------------------------4~----------3~--|
e|---------------|
B|-1-------1-----|
G|---4-2~----4~--|
D|---------------|
A|---------------|
E|---------------|

“We hung out at the rainbow where we drank ’til half past two,
Nothing could go wrong anytime that I’m with you.
Like trashing a hotel room or leading up to that first kiss,
Or searching for a high school that you know doesn’t exist.
These are the things that make me free,
I feel like I’m stuck in ‘Stand By Me’,
This night was too good to be true.”

INTRO/VERSE:(On fourth time, violin changes to):


e|--------------------|
B|--------------------|
G|--0~--1~--2~--5-2~--|
D|--------------------|
A|--------------------|
E|--------------------|

“Today, I woke up alone, wishing you were here with me
I want us to be something that we’ll probably never be.
Today you called me up, said you’d see me at our show,
But, now I’m stuck debating if I even wanna go.”

CHORUS: (guitar chords stay the same) VIOLIN:


e|---------------------------------------------------------------------------|
B|------------------------------------------------------1~-0~----------------|
G|--5~--4-1-2~--0~--------------------------------------------2~-0~----------|
D|------------------3-2~--0-3-2~--3~--2~--0~--3~--2-0~--------------3~-2-0~--|
A|------------------------------------------------------3~-------------------|
E|---------------------------------------------------------------------------|

“Denise, don’t you understand that what I say is true?
I just want you to know I have a major crush on you.
I’d take you to Las Vegas and do things you’d wanna do,
I’d even have Wayne Newton dedicate a song to you.
I only wish that this could be
Just dump your boyfriend and go out with me,
I swear I’d treat you like a queen.”

OUTRO: (Guitar)


e|--0-00-00-00-00-0--0-00-00-00-00-0--1-11-11-11-11-1--3-33-33-33-33-3--|
B|--1-11-11-11-11-1--0-00-00-00-00-0--1-11-11-11-11-1--0-00-00-00-00-0--|
G|--0-00-00-00-00-0--0-00-00-00-00-0--2-22-22-22-22-2--0-00-00-00-00-0--|X7
D|--2-22-22-22-22-2--2-22-22-22-22-2--3-33-33-33-33-3--0-00-00-00-00-0--|
A|--3-33-33-33-33-3--2-22-22-22-22-2--3-33-33-33-33-3--2-22-22-22-22-2--|
E|--0-00-00-00-00-0--0-00-00-00-00-0--1-11-11-11-11-1--3-33-33-33-33-3--|

PIANO: (Come in on second time)


e|--------------------------------------------------------------------|
B|-13-12----13-12-------13-12----10------------------10---------------|
G|-------12-------12----------12----12-10-9-10-12-------12-9-10-12----|
D|-------------------10---------------------------10---------------9--|
A|--------------------------------------------------------------------|
E|--------------------------------------------------------------------|
e|---------------------------------------------------------|
B|---------------------------------------------------------|
G|-9-10-12-12-10-9----9-10-12-10-9-9-12-12-12-10-10-9-9-9--|
D|-----------------12--------------------------------------|
A|---------------------------------------------------------|
E|---------------------------------------------------------|
e|--------------------------------------------------------------------------|
B|--------------------------------------------------------------------------|
G|-12-12-12-10-10-9-9-9-9---------------------------------------------------|
D|------------------------12----10-9-10-9-10-9-10-12--10-9-10-9-10-9-10-12--|
A|--------------------------------------------------------------------------|
E|--------------------------------------------------------------------------|
e|---------------------------------------------------------------------------|
B|---------------------------------------------------------------------------|
G|----------------------9----------9-10-9----9----9-10-12-10-9-10-10-9----9--|
D|-10-9-10-9-10-9-10-12---12-10-12--------12---12----------------------12----|
A|---------------------------------------------------------------------------|
E|---------------------------------------------------------------------------|
e|----------------------------------------------------------------|
B|----------------------------------------------------------------|
G|-9-------9----------------------------9-------------------------|
D|---10-12---12-10-9-10-10-9-10-9-10-12---12-10-12-10-9----9-10~--|
A|------------------------------------------------------12--------|
E|-----------------------------------------------------------8~---|

VIOLIN:


e|------------------------------------------------|
B|------------------------------------------------|
G|------------------------------------0---0-------|
D|------0---0-3-2-3-2-0-2-0---0-2-0-2---2---0-----|
A|--3-2---3-----------------3-----------------3~--|
E|------------------------------------------------|

This is proceeded by some idiot pounding on a piano for a few seconds.
I wont be tabbing that up. I’d just like to say that this song is
quite possibly the worst bloody song I have ever heard. It was a
mistake on my part to tab up the piano and the violin. This has only
wasted my precious time. But, I did it, this tab is perfect.

For those of you without the time: Here are the chords and the lyrics.

Last night I had a dream

That we went to disney land

and Went on all the rides

Didn’t hafta wait in line

I took you to your house

where we stared up at the stars

I listened to your heart beat

as I held you in my arms

We hung out at the rainbow

where we drank til half past two

nothing could go wrong

anytime that I’m with you

Like trashing a hotel room

or leading up to that first kiss

or searching for a high school

that you know doesn’t exist

These are the things that make me free

I feel like I'm stuck in “Stand By Me”

This night was too good to be true

Today I woke up alone

wishing you were here with me

I want us to be something

that we’ll probably never be

Today you called me up

Said you’d see me at our show

But now I’m stuck debating

If I even wanna go

Denise, don’t you understand each word I say is true

I just want you to know I have a major crush on you

I’d take you to Las Vegas and do the things you wanna do

I’d even have Wayne Newton Dedicate a song to you

I only wish that this could be

Dump your Boyfriend and go out with me

I swear I’d treat you like a queen

| / slide up
| slide down
| h hammer-on
| p pull-off
| ~ vibrato
| + harmonic
| x Mute note

Donahue2: point_blanc99@hotmail.com

To play the this songs, including San Dimas High School Football Rules by The Ataris by ukulele, the most crucial basic ukulele chords to learn are C chord, D chord, G chord, and Em chord.
These set you up to play a a lot of songs, and each of them is easy to learn.

Leave a Reply

Your email address will not be published.