Saved by Kutless Ukulele Chords

Posted on

If you are looking for Saved ukulele chords, you have visit to the right site.
You can play versatile instrument Saved using ukulele or guitar.
This song by Kutless can also be played by that instruments.
=

Saved chords has rhythm and included in Kutless (2002) album.
You can also find another musical style, including jazz ukulele chords, country music ukulele chords, pop ukulele chords, world music ukulele chords, and rock ukulele chords here.

Saved by Kutless Ukulele Chords


Song: Saved
Album: Kutless

Intro


E[--------10---------12-12-------]
B[----------------10-------10----]
G[---11--------11-------------11-]4x
D[-9----9----9-------------------]

Verse 1


E[--------10---------12-12-------]
B[----------------10-------10----]
G[---11--------11-------------11-]4x
D[-9----9----9-------------------]

Then


D[-----4-------0--------0-------0---]
A[---2---2---2---2----4---4---4---4-]6x
D[-0-------0--------0-------0-------]

Chorus


D[-2---5---0---7/7-5/5-7-]
A[-2---5---0---7/7-5/5-7-]2x
D[-2---5---0---7/7-5/5-7-]

Verse 2


D[-----4-------0--------0-------0---]
A[---2---2---2---2----4---4---4---4-]6x
D[-0-------0--------0-------0-------]

Chorus 2


D[-2---5---0---7/7-5/5-7-]
A[-2---5---0---7/7-5/5-7-]4x
D[-2---5---0---7/7-5/5-7-]

Post-Chorus


E[--------10---------12-12-------]
B[----------------10-------10----]
G[---11--------11-------------11-]2x
D[-9----9----9-------------------]

Verse 3


E[--------10---------12-12-------]
B[----------------10-------10----]
G[---11--------11-------------11-]8x
D[-9----9----9-------------------]

Chorus 2

Ending
Gtr. 1


D[-2---5---0---7/7-5/5-7-]
A[-2---5---0---7/7-5/5-7-]4x
D[-2---5---0---7/7-5/5-7-]

Gtr. 2


B[-55555555---------]
G[---------44444444-]8x

Ending
D[-2-2-2-]
A[-2-2-2-]
D[-2-2-2-]
i noticed there was more picking in the intro and verses

To play the this songs, including Saved by Kutless by ukulele, the most crucial basic ukulele chords to learn are C chord, D chord, G chord, and Em chord.
These set you up to play a ton of songs, and each of them is easy to master.

Leave a Reply

Your email address will not be published.