Scarecrows by One Bad Son Ukulele Chords

Posted on

If you are searching for Scarecrows ukulele chords, you already visit to the right place.
You can play versatile instrument Scarecrows using ukulele or guitar.
This song by One Bad Son can also be played by that instruments.
=

Scarecrows chords has rhythm and included in One Bad Son (2012) album.
You can also find other musical genres, including jazz ukulele chords, country music ukulele chords, pop ukulele chords, world music ukulele chords, and rock ukulele chords here.

Scarecrows by One Bad Son Ukulele Chords


ONE BAD SON – Scarecrows
Standard Tuning down 1/2 step
Tabbed by: Trevor Cox
YouTube: Geetarzan69

CHORDS:
G – 320033
Gmaj7 – 320032
Em7 – 022033
Cadd9 – x32033
A7sus4 – x02233
Am – x02210

(Note: This is one of those songs where you could argue the verse is the chorus
and the chorus is the verse and vice versa. So I haven’t labelled them, call ’em
what you want!)

INTRO


E|--------------------------------|
B|--------0---0-------------------|
G|-0--0h2------------0----0--0--0-|
D|-5--5----0h4-----2---2--4--5--4-|
A|---------------3----------------|
E|--------------------------------|
E|--------------------------------|
B|--------0---0-------------------|
G|-0--0h2------------0----0--0--0-|
D|-5--5----0h4-----2---2--4--5--5-|
A|---------------3----------------|
E|--------------------------------|

Verse (no vocals)

Everybody says I know, things that I already know
I left you out here on the road, and it seems that I can’t let you go, but I know
Long days and longer nights, have put you back into the spotlight

Everybody says I want, things that I’ve alread[G/F#/Em7]y got
The voices in my head have stopped, asking if I’ve gone to f[G/F#/Em7]ar, but I know
That long days and longer nights, we’ll drown with you out in the spotlight

SOLO CHORDS
G G/F#/Em7 X2

SOLO


e|--------------------------------------------------------------|
B|--------------------------------------------------------------|
G|-/16~16------16-16---19-16-19b21r19-16-16-16------------------|
D|---------------------------------------------/17-16-14--------|
A|--------17h19------------------------------------------14-/14-|
E|--------------------------------------------------------------|
--------------------14--14--14--14-----15-17b19r17-15----15-||
-----15--15--15--/15--15--15--15--15/17---------------17----||
-/16--16--16--16--------------------------------------------||
------------------------------------------------------------||
------------------------------------------------------------||
------------------------------------------------------------||
e|-----------------------------------15b17--17b19-------------------|
B|----15----15----15-----15------------------------/15-17p15--------|
G|-16~---16~---16~---16~----16-17-16------------------------16-14---|
D|----------------------------------------------------------------17|
A|------------------------------------------------------------------|
E|------------------------------------------------------------------|
------------------------------------------||
----------------------15b17r15--17b19r17~-||
-14/16------------------------------------||
-------17-16-14----14---------------------||
----------------17------------------------||
------------------------------------------||

Bridge
Every day I’m gone from home, I just can’t seem to let you go
Now that I have come back home, I just want to be alone
Everybody says I want, things that I’ve alread[G/F#/Em7]y got, oh but I know
Long days and longer nights, we’ll drown with you out in the spotlight
Oh I know that long days and longer nights, have put you back into my mind
long days and longer nights, we’ll drown with you out in the spotlight
But not tonight

OUTRO


E|--------------------------------|
B|--------0---0-------------------|
G|-0--0h2------------0----0--0--0-|
D|-5--5----0h4-----2---2--4--5--5-|
A|---------------3----------------|
E|--------------------------------|

______________________________
/ slide up
slide down
h hammer-on
p pull-off
b Bend
r release
~ vibrato
______________________________

To play the most songs, including Scarecrows by One Bad Son by ukulele, the most important basic ukulele chords to learn are C chord, D chord, G chord, and Em chord.
These set you up to play a ton of songs, and each of them is easy to learn.

Leave a Reply

Your email address will not be published.