Scissors by Emery Ukulele Chords

Posted on

If you are looking for Scissors ukulele chords, you already come to the best site.
You can play versatile instrument Scissors using ukulele or guitar.
This song by Emery can also be played by that instruments.
=

Scissors chords has rhythm and included in We Do What We Want (2011) album.
You can also find another musical genres, including jazz ukulele chords, country music ukulele chords, pop ukulele chords, world music ukulele chords, and rock ukulele chords here.

Scissors by Emery Ukulele Chords


Title: Scissors
Artist: Emery
Album: We Do What We Want

Transcribed by Colton Wood

Ok, so for this tab, I’m going to only insert the first guitar (Which is the
one panned to the left and any leads I may add. Basically whatever Matt plays
live) because that’s all that most of you will learn anyhow. If you really
wish to learn the other parts, take a look at my guitar pro on UG.

Tuning: DADGBE (Drop D)
Keep an ear out for distortion and time signature changes.

Legend
(0) – tied note
x – dead note
h – hammer on/pull off
b – bend
LR – Let Ring
r – release bend
s – slide
~ – vibrato
g – ghost note
> – accentuated note
t – trill
. – palm mute
– staccato
+ – tapping
W – wide vibrato
w – whammy bar
– tremolo picking
v – brush up
^ – brush down
V – pick stroke up
n – pick stroke down

Tempo 174 – 180

| Intro


E|--------------------------------------------|
B|--------------------------------------------|
G|--------------------------------------------|
D|--------------------------------------------|
A|--0-0-0-0-0-0-0-0-0-0-0-0-0-0-0-0-0-0-0-0---|
D|--0-0-0-0-0-0-0-0-0-0-0-0-0-0-0-0-0-0-0-0---|

. . . . . . . . . . . . . . . . . . . .


|--------------------------------------------|
|--------------------------------------------|
|--------------------------------------------|
|--------------------------------------------|
|--0-0-0-0-0-0-0-0-0-0-0-0-0-0-0-0-0-0-0-0---|
|--0-0-0-0-0-0-0-0-0-0-0-0-0-0-0-0-0-0-0-0---|

. . . . . . . . . . . . . . . . . . . .


|--------------------------------------------|
|--------------------------------------------|
|--------------------------------------------|
|--------------------------------------------|
|--0-0-0-0-0-0-0-0-0-0-0-0-0-0-0-0-0-0-0-0---|
|--0-0-0-0-0-0-0-0-0-0-0-0-0-0-0-0-0-0-0-0---|

. . . . . . . . . . . . . . . . . . . .


|--------------------------------------------|
|--------------------------------------------|
|--------------------------------------------|
|--------------------------------------------|
|--0-0-0-0-0-0-0-0-0-0-0-0-0-0-0-0-0-0-0-0---|
|--0-0-0-0-0-0-0-0-0-0-0-0-0-0-0-0-0-0-0-0---|

. . . . . . . . . . . . . . . . . . . .

| Clean Interlude


|--3-----3--3--3--3----|--5-----5--5--5--5----|--3----|--(3)--|
|--5-----5--5--5--5----|--8-----8--8--8--8----|--3----|--(3)--|
|--5-----5--5--5--5----|--5-----5--5--5--5----|--5----|--(5)--|
|----------------------|----------------------|-------|-------|
|----------------------|----------------------|-------|-------|
|----------------------|----------------------|-------|-------|

| Verse 1


|----------------------|----------------------|----------------------|
|----------------------|----------------------|----------------------|
|----------------------|----------------------|----------------------|
|-----5-----3h----2----|-----5-----3h----2----|-----5-----3h----2----|
|--0-----0-------------|--0-----0-------------|--0-----0-------------|
|----------------------|----------------------|----------------------|

. . . . . .


|----------------------|----------------------|----------------------|
|----------------------|----------------------|----------------------|
|----------------------|----------------------|----------------------|
|-----5-----3h----2----|-----5-----3----------|-----5-----3----------|
|--0-----0-------------|-----------------7----|-----------------7----|
|----------------------|--3-----3-------------|--3-----3-------------|

. . . . . .


|-----------------------------------------------------|
|-----------------------------------------------------|
|-----------------------------------------------------|
|-----------------------------------------------------|
|--0-0-0-0-0-0-0----------------0-0-0----0-0-0--------|
|--0-0-0-0-0-0-0----------------0-0-0----0-0-0--------|

. . . . . . . . . . . . .


|-----------------------------------------------------|
|-----------------------------------------------------|
|-----------------------------------------------------|
|-----------------------------------------------------|
|--0-0-0-0-0-0-0----------------0-0-0----0-0-0--------|
|--0-0-0-0-0-0-0----------------0-0-0----0-0-0--------|

. . . . . . . . . . . . .

| Clean Interlude


|--3-----3--3--3--3----|--5-----5--5--5--5----|--3----|--(3)--|
|--5-----5--5--5--5----|--8-----8--8--8--8----|--3----|--(3)--|
|--5-----5--5--5--5----|--5-----5--5--5--5----|--5----|--(5)--|
|----------------------|----------------------|-------|-------|
|----------------------|----------------------|-------|-------|
|----------------------|----------------------|-------|-------|

| Verse 2


|----------------------|----------------------|----------------------|
|----------------------|----------------------|----------------------|
|----------------------|----------------------|----------------------|
|-----5-----3h----2----|-----5-----3h----2----|-----5-----3h----2----|
|--0-----0-------------|--0-----0-------------|--0-----0-------------|
|----------------------|----------------------|----------------------|

. . . . . .


|----------------------|----------------------|----------------------|
|----------------------|----------------------|----------------------|
|----------------------|----------------------|----------------------|
|-----5-----3h----2----|-----5-----3----------|-----5-----3----------|
|--0-----0-------------|-----------------7----|-----------------7----|
|----------------------|--3-----3-------------|--3-----3-------------|

. . . . . .


|-----------------------------------------------------|
|-----------------------------------------------------|
|-----------------------------------------------------|
|-----------------------------------------------------|
|--0-0-0-0-0-0-0----------------0-0-0----0-0-0--------|
|--0-0-0-0-0-0-0----------------0-0-0----0-0-0--------|

. . . . . . . . . . . . .


|-----------------------------------------------------|
|-----------------------------------------------------|
|-----------------------------------------------------|
|-----------------------------------------------------|
|--0-0-0-0-0-0-0----------------0-0-0----0-0-0--------|
|--0-0-0-0-0-0-0----------------0-0-0----0-0-0--------|

. . . . . . . . . . . . .

| I never saw this coming…


|----------------------|----------------------|----------------------|
|----------------------|----------------------|----------------------|
|----------------------|----------------------|--2-----2--2--2--2----|
|--7-----7--7--7--7----|--3-----3--3--3--3----|--0-----0--0--0--0----|
|--7-----7--7--7--7----|--3-----3--3--3--3----|--0-----0--0--0--0----|
|--7-----7--7--7--7----|--3-----3--3--3--3----|--0-----0--0--0--0----|
|----------------------|-------|-------|
|----------------------|-------|-------|
|--2-----2--2--2--2----|-------|-------|
|--0-----0--0--0--0----|-------|-------|
|--0-----0--0--0--0----|--0----|--(0)--|
|--0-----0--0--0--0----|--0----|--(0)--|

| The “Breakdown”

[+] [+] [+] [+]


|-13--3h5--12--3h5--13-3h5-12-3h5-|
|---------------------------------|
|---------------------------------|
|---------------------------------|
|---------------------------------|
|---------------------------------|

[+] [+] [+] [+]


|-13--3h5--12--3h5--13-3h5-12-3h5-|
|---------------------------------|
|---------------------------------|
|---------------------------------|
|---------------------------------|
|---------------------------------|

[+] [+] [+] [+]


|-13--3h5--12--3h5--13-3h5-12-3h5-|
|---------------------------------|
|---------------------------------|
|---------------------------------|
|---------------------------------|
|---------------------------------|

[+] [+] [+] [+] [+] [+] [+]


|-10-3-10-3-10-3-10-3-12-3-12-3-12-3-|
|------------------------------------|
|------------------------------------|
|------------------------------------|
|------------------------------------|
|------------------------------------|

| Chorus


|----------------------------|----------------------------|
|----------------------------|----------------------------|
|----------------------------|----------------------------|
|-----------3-----3--3-------|-----------3-----3--3--3----|
|-----------7-----7--7-------|-----------7-----7--7--7----|
|--3-----3--------------3----|--3--3--3-------------------|
|----------------------------|----------------------------|
|-----------10----10-10------|-----------10----10-10-10---|
|-----------10----10-10------|-----------10----10-10-10---|
|-----------x-----x--x-------|-----------x-----x--x--x----|
|-----------8-----8--8-------|-----------8-----8--8--8----|
|--0-----0--------------0----|--0--0--0-------------------|
|----------------------------|----------------------------|
|----------------------------|----------------------------|
|-----------5-----5--5-------|-----------5-----5--5--5----|
|--2-----2--x-----x--x--2----|--2--2--2--x-----x--x--x----|
|--0-----0--3-----3--3--0----|--0--0--0--3-----3--3--3----|
|----------------------------|----------------------------|
|----------------------------|----------------------------|
|----------------------------|----------------------------|
|-----------4-----4--4-------|-----------4-----4--4--4----|
|-----------x-----x--x-------|-----------x-----x--x--x----|
|--5-----5--2-----2--2--5----|--5--5--5--2-----2--2--2----|
|--5-----5--------------5----|--5--5--5-------------------|
|----------------------------|----------------------------|
|----------------------------|----------------------------|
|----------------------------|----------------------------|
|-----------3-----3--3-------|-----------3-----3--3--3----|
|-----------7-----7--7-------|-----------7-----7--7--7----|
|--3-----3--------------3----|--3--3--3-------------------|
|----------------------------|----------------------------|
|-----------10----10-10------|-----------10----10-10-10---|
|-----------10----10-10------|-----------10----10-10-10---|
|-----------x-----x--x-------|-----------x-----x--x--x----|
|-----------8-----8--8-------|-----------8-----8--8--8----|
|--0-----0--------------0----|--0--0--0-------------------|
|----------------------------|----------------------------|
|----------------------------|----------------------------|
|--5--5--5--5--5--5--5--5----|--5--5--5--5--5--5--5--5----|
|--x--x--x--x--x--x--x--x----|--x--x--x--x--x--x--x--x----|
|--3--3--3--3--3--3--3--3----|--3--3--3--3--3--3--3--3----|
|----------------------------|----------------------------|
|----------------------------|----------------------------|
|----------------------------|----------------------------|
|--4--4--4--4--4--4--4--4----|--4--4--4--4--4--4--4--4----|
|--x--x--x--x--x--x--x--x----|--x--x--x--x--x--x--x--x----|
|--2--2--2--2--2--2--2--2----|--2--2--2--2--2--2--2--2----|
|----------------------------|----------------------------|

| Bridge


|--5--------------------5----|----------------------------|
|-----3--5--5--------3-------|--3--5--------5-----5--6----|
|--------------5-------------|--------5--------2----------|
|-----------------3----------|-----------3----------------|
|----------------------------|----------------------------|
|----------------------------|----------------------------|
|--5--------------------5----|----------------------------|
|-----3--5--5--------3-------|--3--5--------5-----5--6----|
|--------------5-------------|--------5--------2----------|
|-----------------3----------|-----------3----------------|
|----------------------------|----------------------------|
|----------------------------|----------------------------|
|--5--------------------5----|----------------------------|
|-----3--5--5--------3-------|--3--5--------5-----5--6----|
|--------------5-------------|--------5--------2----------|
|-----------------3----------|-----------3----------------|
|----------------------------|----------------------------|
|----------------------------|----------------------------|
|--5--------------------5----|--------------3--5----------|
|-----3--5--5--------3-------|--3--5--------------3--5----|
|--------------5-------------|--------5-------------------|
|-----------------3----------|-----------3----------------|
|----------------------------|----------------------------|
|----------------------------|----------------------------|
|--5--------------------5----|----------------------------|
|-----3--5--5--------3-------|--3--5--------5-----5--6----|
|--------------5-------------|--------5--------2----------|
|-----------------3----------|-----------3----------------|
|----------------------------|----------------------------|
|----------------------------|----------------------------|
|--5--------------------5----|----------------------------|
|-----3--5--5--------3-------|--3--5--------5-----5--6----|
|--------------5-------------|--------5--------2----------|
|-----------------3----------|-----------3----------------|
|----------------------------|----------------------------|
|----------------------------|----------------------------|
|--5--------------------5----|----------------------------|
|-----3--5--5--------3-------|--3--5--------5-----5--6----|
|--------------5-------------|--------5--------2----------|
|-----------------3----------|-----------3----------------|
|----------------------------|----------------------------|
|----------------------------|----------------------------|
|--5--------------------5----|--------------------0h-5----|
|-----3--5--5--------3-------|--3--5--------3--5----------|
|--------------5-------------|--------5-------------------|
|-----------------3----------|-----------3----------------|
|----------------------------|----------------------------|
|----------------------------|----------------------------|

| Interlude
Theres a four bar synth fill, and then the guitars come in.


LR ----------------- ---------------------- -------------- ------------------
|--12----------12----0-------|--------12----0-------------|------10------10-----|
|--------13------------------|--13----------------13------|---------------------|
|-----16----------------16---|-----------------16---------|---12------12-----12-|
|----------------------------|----------------------------|---------------------|
|----------------------------|----------------------------|---------------------|
|----------------------------|----------------------------|---------------------|
LR -------------- ---------------------- --------------
|--------------10----10------|--------10----10------------|
|--------13------------------|--13----------------13------|
|-----16----------------16---|-----------------16---------|
|----------------------------|----------------------------|
|----------------------------|----------------------------|
|----------------------------|----------------------------|
LR -------------- ---------------------- --------------
|--------------10----10------|--------10----10------------|
|--------13------------------|--13----------------13------|
|-----16----------------16---|-----------------16---------|
|----------------------------|----------------------------|
|----------------------------|----------------------------|
|----------------------------|----------------------------|
LR ----------------- ---------------------- -------------- ------------------
|--12----------12----0-------|--------12----0-------------|------10------10-----|
|--------13------------------|--13----------------13------|---------------------|
|-----16----------------16---|-----------------16---------|---12------12-----12-|
|----------------------------|----------------------------|---------------------|
|----------------------------|----------------------------|---------------------|
|----------------------------|----------------------------|---------------------|

(one last time…)


|-----------0----------------|-------|----------------------------|-------|
|-----------6----------------|-------|----------------------------|-------|
|-----------5----------------|--5----|----------------------------|--5----|
|--3-----------------3-------|--3----|--9--------10-------9-------|--7----|
|--3-----------------3-------|--3----|--x--------x--------x-------|--5----|
|--3-----------------3-------|-------|--0--------0--------0-------|--0----|

| I want to let go of this world for you


|-------------|-------------|-------------|-------------|
|-------------|-------------|-------------|-------------|
|-----5--5----|-----2--2----|-------------|-------------|
|--5--5--5----|--3--3--3----|--2--2--2----|--2----------|
|--7--7--7----|--3--3--3----|--3--3--3----|--3----------|
|-------------|-------------|--5--5--5----|--5----------|

| Chorus


|----------------------------|----------------------------|
|----------------------------|----------------------------|
|----------------------------|----------------------------|
|-----------3-----3--3-------|-----------3-----3--3--3----|
|-----------7-----7--7-------|-----------7-----7--7--7----|
|--3-----3--------------3----|--3--3--3-------------------|
|----------------------------|----------------------------|
|----------------------------|----------------------------|
|-----------10----10-10------|-----------10----10-10-10---|
|-----------x-----x--x-------|-----------x-----x--x--x----|
|-----------8-----8--8-------|-----------8-----8--8--8----|
|--0-----0--------------0----|--0--0--0-------------------|
|----------------------------|----------------------------|
|----------------------------|----------------------------|
|-----------5-----5--5-------|-----------5-----5--5--5----|
|--2-----2--x-----x--x--2----|--2--2--2--x-----x--x--x----|
|--0-----0--3-----3--3--0----|--0--0--0--3-----3--3--3----|
|----------------------------|----------------------------|
|----------------------------|----------------------------|
|----------------------------|----------------------------|
|-----------4-----4--4-------|-----------4-----4--4--4----|
|-----------x-----x--x-------|-----------x-----x--x--x----|
|--5-----5--2-----2--2--5----|--5--5--5--2-----2--2--2----|
|--5-----5--------------5----|--5--5--5-------------------|
|----------------------------|----------------------------|
|----------------------------|----------------------------|
|----------------------------|----------------------------|
|-----------3-----3--3-------|-----------3-----3--3--3----|
|-----------7-----7--7-------|-----------7-----7--7--7----|
|--3-----3--------------3----|--3--3--3-------------------|
|----------------------------|----------------------------|
|----------------------------|----------------------------|
|-----------10----10-10------|-----------10----10-10-10---|
|-----------x-----x--x-------|-----------x-----x--x--x----|
|-----------8-----8--8-------|-----------8-----8--8--8----|
|--0-----0--------------0----|--0--0--0-------------------|
|----------------------------|----------------------------|
|----------------------------|----------------------------|
|--5--5--5--5--5--5--5--5----|--5--5--5--5--5--5--5--5----|
|--x--x--x--x--x--x--x--x----|--x--x--x--x--x--x--x--x----|
|--3--3--3--3--3--3--3--3----|--3--3--3--3--3--3--3--3----|
|----------------------------|----------------------------|
|----------------------------|----------------------------|
|----------------------------|----------------------------|
|--4--4--4--4--4--4--4--4----|--4--4--4--4--4--4--4--4----|
|--x--x--x--x--x--x--x--x----|--x--x--x--x--x--x--x--x----|
|--2--2--2--2--2--2--2--2----|--2--2--2--2--2--2--2--2----|
|----------------------------|----------------------------|

| Key Change


|----------------------------|----------------------------|
|----------------------------|----------------------------|
|----------------------------|----------------------------|
|--8--8--8--8--8--8--8--8----|--8--8--8--8--8--8--8--8----|
|--8--8--8--8--8--8--8--8----|--8--8--8--8--8--8--8--8----|
|--8--8--8--8--8--8--8--8----|--8--8--8--8--8--8--8--8----|
|----------------------------|----------------------------|
|----------------------------|----------------------------|
|----------------------------|----------------------------|
|--5--5--5--5--5--5--5--5----|--5--5--5--5--5--5--5--5----|
|--8--8--8--8--8--8--8--8----|--8--8--8--8--8--8--8--8----|
|--5--5--5--5--5--5--5--5----|--5--5--5--5--5--5--5--5----|
|----------------------------|----------------------------|
|----------------------------|----------------------------|
|----------------------------|----------------------------|
|--8--8--8--8--8--8--8--8----|--8--8--8--8--8--8--8--8----|
|--8--8--8--8--8--8--8--8----|--8--8--8--8--8--8--8--8----|
|--8--8--8--8--8--8--8--8----|--8--8--8--8--8--8--8--8----|
|----------------------------|----------------------------|
|--10-10-10-10-10-10-10-10---|--10-10-10-10-10-10-10-10---|
|--x--x--x--x--x--x--x--x----|--x--x--x--x--x--x--x--x----|
|--7--7--7--7--7--7--7--7----|--7--7--7--7--7--7--7--7----|
|--0--0--0--0--0--0--0--0----|--0--0--0--0--0--0--0--0----|
|----------------------------|----------------------------|
|----------------------------|----------------------------|
|--10-10-10-10-10-10-10-10---|--10-10-10-10-10-10-10-10---|
|--x--x--x--x--x--x--x--x----|--x--x--x--x--x--x--x--x----|
|--7--7--7--7--7--7--7--7----|--7--7--7--7--7--7--7--7----|
|--0--0--0--0--0--0--0--0----|--0--0--0--0--0--0--0--0----|
|----------------------------|----------------------------|

| Outro

This starts with synth as well and then the real guitars come in.
The rhythm guitars just play the D power chord, so you can figure that out
without a tab really easily. But there is a lead that looks like this:


|-----------------------------------------|
|------10---------8------8------8------8--|
|---10----10---10-----10-----10-----10----|
|-7----------7------7------7------7-------|
|-----------------------------------------|
|-----------------------------------------|

Which is played repeadeatly. But that’s about it!

Good luck guys, and God bless!
– Colton

To play the most songs, including Scissors by Emery by ukulele, the most important basic ukulele chords to learn are C chord, D chord, G chord, and Em chord.
These set you up to play a many of songs, and each of them is easy to master.

Gravatar Image
Like to play Ukulele and Sudoku Game

Leave a Reply

Your email address will not be published. Required fields are marked *