Senza titoli by Samuele Bersani Ukulele Chords

Posted on

If you are searching for Senza titoli ukulele chords, you already visit to the right site.
You can play versatile instrument Senza titoli using ukulele or guitar.
This song by Samuele Bersani can also be played by that instruments.
=

Senza titoli chords has rhythm and included in L’oroscopo speciale (2000) album.
You can also get other musical style, including jazz ukulele chords, country music ukulele chords, pop ukulele chords, world music ukulele chords, and rock ukulele chords here.

Senza titoli by Samuele Bersani Ukulele Chords


e|---------------------------------------------------------------------------------------------------|
B|---2-3-5-4-5-4-5-7-5-----7-9-10-9-10-9-10-12-10-------10-12-14-------------------------------------|
G|---------------------6--------------------------11-------------13---14-13-14-13-14-11-13-11-9------|
D|---------------------------------------------------------------------------------------------------|
A|---------------------------------------------------------------------------------------------------|
E|---------------------------------------------------------------------------------------------------|


[Esus4/E]
[Verse 1]
Il caso vuole che io non sia capace
di assorbire la tua voce in pace
non sto bene
oddio mi sento le caviglie in catene[Esus4/E]

[Verse 2]
Il caso vuole che io non sia per niente
quello che tu avevi avuto in mente
non importa
ho comprato una chitarra distorta[Esus4/E]

[Instrumental]


e|---------------------------------------------------------------------------------------------------|
B|---2-3-5-4-5-4-5-7-5-----7-9-10-9-10-9-10-12-10-------10-12-14-------------------------------------|
G|---------------------6--------------------------11-------------13---14-13-14-13-14-11-13-11-9------|
D|---------------------------------------------------------------------------------------------------|
A|---------------------------------------------------------------------------------------------------|
E|---------------------------------------------------------------------------------------------------|

[Verse 3]
E la porta sbatte per il vento
ho una guancia sopra il pavimento
no, son svenuto
pensandoci mi e piaciuto[Esus4/E]


Io vivo inseguito dalle videoteche che non
hanno mai dei titoli per me
non ne ho ridato mai uno indietro
e un segreto che sai soltanto te
Mi manchi tu non ci sei piu e sempre accesa la tv

e mi addormento alle tre
perche a quell’ora mi sento sereno
o almeno non mi faccio un caffe

[Verse 4]
Mi hanno gia pulito il vetro e contemporaneamente
le parole che ho inventato senza averle scritte
non fa niente
ricomincio dal presente[Esus4/E]


Io vivo inseguito dalle videoteche che non

hanno mai dei titoli per me
non ne ho ridato mai uno indietro
e un segreto che sai soltanto te
Mi manchi tu non ci sei piu e sempre accesa la tv

e mi addormento alle tre
perche a quell’ora mi sento sereno
o almeno non mi faccio un caffe

[Instrumental]


e|---------------------------------------------------------------------------------------------------|
B|---2-3-5-4-5-4-5-7-5-----7-9-10-9-10-9-10-12-10-------10-12-14-------------------------------------|
G|---------------------6--------------------------11-------------13---14-13-14-13-14-11-13-11-9------|
D|---------------------------------------------------------------------------------------------------|
A|---------------------------------------------------------------------------------------------------|
E|---------------------------------------------------------------------------------------------------|


Io vivo inseguito dalle videoteche che non

hanno mai dei titoli per me
non ne ho ridato mai uno indietro
e un segreto che sai soltanto te
Mi manchi tu non ci sei piu e sempre accesa la tv

e mi addormento alle tre
perche a quell’ora mi sento sereno
o almeno non mi faccio un caffe

[Instrumental] x2


e|---------------------------------------------------------------------------------------------------|
B|---2-3-5-4-5-4-5-7-5-----7-9-10-9-10-9-10-12-10-------10-12-14-------------------------------------|
G|---------------------6--------------------------11-------------13---14-13-14-13-14-11-13-11-9------|
D|---------------------------------------------------------------------------------------------------|
A|---------------------------------------------------------------------------------------------------|
E|---------------------------------------------------------------------------------------------------|


[Esus4/E]

To play the most songs, including Senza titoli by Samuele Bersani by ukulele, the most important basic ukulele chords to learn are C chord, D chord, G chord, and Em chord.
These set you up to play a many of songs, and each of them is easy to master.

Leave a Reply

Your email address will not be published.