Skinny Love by Birdy Ukulele Chords

Posted on

If you are looking for Skinny Love ukulele chords, you’ve come to the right place.
You can play versatile instrument Skinny Love using ukulele or guitar.
This song by Birdy can also be played by that instruments.
=

Skinny Love chords has rhythm and included in Birdy (2011) album.
You can also get other musical style, including jazz ukulele chords, country music ukulele chords, pop ukulele chords, world music ukulele chords, and rock ukulele chords here.

Skinny Love by Birdy Ukulele Chords

Skinny Love – Bon Iver

Birdy’s Version arranged for guitar based on Am, F and C
http://www.youtube.com/watch?vaNzCDt2eidg (Skinny Love – Birdy)

The chorded version is underneath.

If you would like the piano score, email fcdl@live.co.uk or comment or send me a
message or whatever and I’ll send you the version I have.


Each |----------------| represents a bar in 4/4
In the chorus, there is a bar in 2/4 (|--------|, it's meant to be like that)

Capo 4th fret

INTRO


E|0-------1-------|0---------------|0-------1-------|0-----------0---|
B|1-------1-------|1-------0-------|1-------1-------|1-------0---0---|
G|2-------2-------|0---------------|2-------2-------|0---------0-----|
D|2-------3-------|2---------------|2-------3-------|2---------------|
A|0-------3-------|3---------------|0-------3-------|3---------------|
e|0-------1-------|0---------------|0-------1-------|0---------------|

VERSE 1


E|0-------1-------|0-----------0---|0-------1-------|0-----------0---|
B|1-------1-------|1-------0---0---|1-------1-------|1-------0---0---|
G|2-------2-------|0---------0-----|2-------2-------|0---------0-----|
D|2-------3-------|2---------------|2-------3-------|2---------------|
A|0-------3-------|3---------------|0-------3-------|3---------------|
e|0-------1-------|0---------------|0-------1-------|0---------------|

Come on skinny love just last the year
Pour a little salt we were never here


E|----------------|----0-------0---|1---0-----------|0---------------|
B|1---1-----------|----1-------1---|1-------3---1---|1-------1p0-----|
G|2---2---2---2---|--0---0---0---0-|2---------------|2-----------2p0-|
D|--2---2-3---3---|----------------|2---------------|2---------------|
A|----------3---3-|--------3-------|0---------------|0---------------|
e|----------------|----------------|0---------------|0---------------|

My my my – my my my – my my my my – my my …
Staring at the sink of blood and crushed veneer

VERSE 2


E|8---------------|----0---0---0---|----------------|0---0---0---0---|
B|----------------|----1---0---1-3-|1---1-----------|0---1---1---1-3-|
G|----5-------2---|--0---0---0-----|2---2---2---2---|--0---0---0-----|
D|----7-------3---|----------------|--2---2-3---3---|----------------|
A|--7---7---3---3-|----------------|----------3---3-|----------------|
e|--------1-------|----------------|----------------|----------------|

I tell my love to wreck it all
Cut out all the ropes and let me fall


E|----------------|----0-------0---|1---0-----------|0---------------|
B|1---1-----------|----1-------1---|1-------3---1---|1---------------|
G|2---2---2---2---|--0---0---0---0-|2---------------|2---------------|
D|--2---2-3---3---|----------------|2---------------|2---------------|
A|----------3---3-|--------3-------|0---------------|0-----------0-2-|
e|----------------|----------------|0---------------|0---------------|

My my my – my my my – my my my my – my my …
Right in the moment this order’s tall

CHORUS


E|----------------|----------------|----------------|----------------|
B|1---1-------1---|0---0-----------|1---1-------1---|0---0-----------|
G|0---0-------0---|0---0-2-------0-|0---0-------0---|0---0-2-------0-|
D|--2---2---2---2-|--2-----2---2---|--2---2---2---2-|--2-----2---2---|
A|----------------|----------3-----|----------------|----------3-----|
e|----------------|----------------|----------------|----------0-----|

I told you to be patient I told you to be fine
I told you to be balanced I told you to be kind


E|----------------|----------------|----------------|----------------|
B|1---1-------1---|0---0-----------|1---1-------1---|0---0-----------|
G|0---0-------0---|0---0-2-------0-|0---0-------0---|0---0-2-------0-|
D|--2---2---2---2-|--2-----2---2---|--2---2---2---2-|--2-----2---2---|
A|----------------|----------3-----|----------------|----------3-----|
e|----------------|----------------|----------------|----------0-----|

In the morning I’ll be with you
But it will be a different kind


E|----------------|--------|----------------|----------------|
B|1---1-------1---|0---0---|----------------|1-----1---------|
G|0---0-------0---|0---0-2-|2---2-------2---|----2-----------|
D|--2---2---2---2-|--2-----|2---2-------2---|--2-------------|
A|----------------|--------|--0---0---0---0-|----------------|
e|----------------|--------|----------------|----------------|

I’ll be holding all the tickets
And you’ll be owning all the fines

VERSE III


E|----------------|0---0---0---0---|----------------|0---0---0---0---|
B|1---1-----------|1---1---1---1-3-|1---1-----------|1---1---0---1-3-|
G|2---2---2---2---|--0---0---0-----|2---2---2---2---|--0---0---0-----|
D|--2---2-3---3---|----------------|--2---2-3---3---|----------------|
A|----------3---3-|----------------|----------3---3-|----------------|
e|----------------|----------------|----------------|----------------|

Come on skinny love what happened here
Suckle on the hope in lite brassiere


E|----------------|----0-------0---|1---0-----------|0---------------|
B|1---1-----------|----1-------1---|1-------3---1---|1---------------|
G|2---2---2---2---|--0---0---0---0-|2---------------|2---------------|
D|--2---2-3---3---|----------------|2---------------|2---------------|
A|----------3---3-|--------3-------|0---------------|0-----------0-2-|
e|----------------|----------------|0---------------|0---------------|

My my my – my my my – my my my my – my my …
Sullen load is full so slow on the split

CHORUS


E|----------------|----------------|----------------|----------------|
B|1---1-------1---|0---0-----------|1---1-------1---|0---0-----------|
G|0---0-------0---|0---0-2-------0-|0---0-------0---|0---0-2-------0-|
D|--2---2---2---2-|--2-----2---2---|--2---2---2---2-|--2-----2---2---|
A|----------------|----------3-----|----------------|----------3-----|
e|----------------|----------------|----------------|----------0-----|

I told you to be patient I told you to be fine
I told you to be balanced I told you to be kind


E|----------------|----------------|----------------|----------------|
B|1---1-------1---|0---0-----------|1---1-------1---|0---0-----------|
G|0---0-------0---|0---0-2-------0-|0---0-------0---|0---0-2-------0-|
D|--2---2---2---2-|--2-----2---2---|--2---2---2---2-|--2-----2---2---|
A|----------------|----------3-----|----------------|----------3-----|
e|----------------|----------------|----------------|----------0-----|

In the morning I’ll be with you
But it will be a different kind


E|----------------|--------|----------------|----------------|
B|1---1-------1---|0---0---|----------------|1-----1---------|
G|0---0-------0---|0---0-2-|2---2-------2---|----2-----------|
D|--2---2---2---2-|--2-----|2---2-------2---|--2-------------|
A|----------------|--------|--0---0---0---0-|----------------|
e|----------------|--------|----------------|----------------|

I’ll be holding all the tickets
And you’ll be owning all the fines

BRIDGE


E|0---------------|0---------------|0-------0-------|----------------|--------0-------|
B|1---------------|----3---1-----3-|1-----------3---|1---1-------1---|1-----1-1-------|
G|0---------------|--------0-------|0---------------|----------------|----2---2-------|
D|2---------------|--------2-------|2---------------|--2---2-2-2---2-|--2-----2-------|
A|3---------------|--------2-------|3---------------|----------------|--------0-------|
e|0---------------|----------------|0---------------|----------------|--------0-------|

Who will love you? who will fight?
And who will fall, far behind?

VERSE IV (OUTRO)


E|----------------|----0---0---0---|----------------|0---0---0---0---|
B|1---1-----------|----1---1---1-3-|1---1-----------|1---1---0---1-3-|
G|2---2---2---2---|--0---0---0-----|2---2---2---2---|--0---0---0-----|
D|--2---2-3---3---|----------------|--2---2-3---3---|----------------|
A|----------3---3-|----------------|----------3---3-|----------------|
e|----------------|----------------|----------------|----------------|

Come on skinny love …


E|----------------|0---0---0---0---|----------------|0---0---0---0---|
B|1---1---------0-|1---1---1---1-3-|1---1-----------|1---1---0---1-3-|
G|2---2---2---2---|--0---0---0-----|2---2---2---2---|--0---0---0-----|
D|--2---2-3---3---|----------------|--2---2-3---3---|----------------|
A|----------3-----|----------------|----------3---3-|----------------|
e|----------------|----------------|----------------|----------------|

My my my – my my my – my my my – my my …


E|----------------|0------0--------|----------------|0-----0-0-------|
B|1---1-----------|1---1-0-----0---|1------1--------|1---1---1-------|
G|2---2---2---2---|--0--0----0-----|2---2-2-2---2---|--0-----0-------|
D|--2---2-3---3---|--------------4-|--2--2--3---3---|--------2-------|
A|----------3---3-|----------------|----------3---3-|--------3-------|
e|----------------|----------------|----------------|----------------|

Chorded version

Capo 4th fret

Am F C (2x)

Come on skinny love just last the year
Pour a little salt we were never here
My my my – my my my – my my my my – my my …
Staring at the sink of blood and crushed veneer

I tell my love to wreck it all
Cut out all the ropes and let me fall
My my my – my my my – my my my my – my my …
Right in the moment this order’s tall

I told you to be patient I told you to be fine
I told you to be balanced I told you to be kind
In the morning I’ll be with you
But it will be a different kind
I’ll be holding all the tickets
And you’ll be owning all the fines

Come on skinny love what happened here
Suckle on the hope in lite brassiere
My my my – my my my – my my my – my my …
Sullen load is full so slow on the split

I told you to be patient I told you to be fine
I told you to be balanced I told you to be kind
Now all your love is wasted then who the hell was I?
Cause now I’m breaking at the britches
And at the end of all your lines

Who will love you? who will fight?
And who will fall, far behind?

Come on skinny love ……..[(Am][C)]
My my my – my my my – my my my – my my ... (x2)

Am F C (2x)

To play the most songs, including Skinny Love by Birdy by ukulele, the most crucial basic ukulele chords to learn are C chord, D chord, G chord, and Em chord.
These set you up to play a ton of songs, and each of them is easy to master.

Leave a Reply

Your email address will not be published.