Slayer of Light by The Romantics Ukulele Chords

Posted on

If you are looking for Slayer of Light ukulele chords, you’ve come to the right place.
You can play versatile instrument Slayer of Light using ukulele or guitar.
This song by The Romantics can also be played by that instruments.
=

Slayer of Light chords has Ballade rhythm and included in In Heat (1983) album.
You can also get another musical style, including jazz ukulele chords, country music ukulele chords, pop ukulele chords, world music ukulele chords, and rock ukulele chords here.

Slayer of Light by The Romantics Ukulele Chords

Slayer Of Light

Ensiferum
Guitar 1

E E E E E E E E Q Q Q Q


E||--------------------------|-------|-------|----------------------|
B||--------------------------|-------|-------|----------------------|
G||--------------------------|-------|-------|----------------------|
D||--2-----------------------|-------|-------|--2----5----6----5----|
A||--2-----------------------|-------|-------|--2----5----6----5----|
E||--0-----------------------|-------|-------|--0----3----4----3----|

E E E E E E E E E E Q Q E E W


--------------------------|------------------------|-------------------|
--------------------------|------------------------|-------------------|
--------------------------|------------------------|-------------------|
--2-----------------------|--5--2------------------|--2----------------|
--2-----------------------|--5--2------------------|--2----------------|
--0-----------------------|--3--0------------------|--0----------------|

Q Q Q Q Q Q Q Q


----------------------|----------------------|-------|-------|
----------------------|----------------------|-------|-------|
----------------------|----------------------|-------|-------|
--2----5----6----5----|--2-------------------|-------|-------|
--2----5----6----5----|--2-------------------|-------|-------|
--0----3----4----3----|--0-------------------|-------|-------|

Q Q Q Q Q Q Q Q E E E E E E E E


----------------------|----------------------|--------------------------|
----------------------|----------------------|--------------------------|
----------------------|----------------------|--------------------------|
--2----5----6----5----|----------------------|--5--2--------------------|
--2----5----6----5----|--2-------------------|--5--2--------------------|
--0----3----4----3----|--0-------------------|--3--0--------------------|

W Q Q Q Q


-------------------|----------------------|-------|-------|-------|-------|
-------------------|----------------------|-------|-------|-------|-------|
-------------------|----------------------|-------|-------|-------|-------|
--2----------------|--2----5----6----5----|-------|-------|-------|-------|
--2----------------|--2----5----6----5----|-------|-------|-------|-------|
--0----------------|--0----3----4----3----|-------|-------|-------|-------|

Q Q Q Q E E E E E E E E W


----------------------|--------------------------|-------------------|
----------------------|--------------------------|-------------------|
----------------------|--------------------------|-------------------|
----------------------|--5--2--------------------|--2----------------|
--2-------------------|--5--2--------------------|--2----------------|
--0-------------------|--3--0--------------------|--0----------------|

Q Q Q Q


----------------------|-------|-------|-------|-------|-------|-------|-------|
----------------------|-------|-------|-------|-------|-------|-------|-------|
----------------------|-------|-------|-------|-------|-------|-------|-------|
--7----5----2----5----|-------|-------|-------|-------|-------|-------|-------|
--7----5----2----5----|-------|-------|-------|-------|-------|-------|-------|
--5----3----0----3----|-------|-------|-------|-------|-------|-------|-------|
-------|-------|-------|-------|-------|-------|-------|-------|-------|-------|
-------|-------|-------|-------|-------|-------|-------|-------|-------|-------|
-------|-------|-------|-------|-------|-------|-------|-------|-------|-------|
-------|-------|-------|-------|-------|-------|-------|-------|-------|-------|
-------|-------|-------|-------|-------|-------|-------|-------|-------|-------|
-------|-------|-------|-------|-------|-------|-------|-------|-------|-------|

Q E E Q Q Q E E Q Q Q E E E E Q


-----------------------|-----------------------|------------------------|
-----------------------|----------5--3---------|------------------------|
--2----L--2--4----5----|--5----L----------5----|----------4--2--4-------|
-----------------------|-----------------------|--5----L-----------5----|
-----------------------|-----------------------|------------------------|
-----------------------|-----------------------|------------------------|

NH
H H Q E E Q Q Q E E Q Q


--------------------|-----------------------|-------------------------|
--------------------|-----------------------|------------5--3---------|
--------------------|--2----L--2--4----5----|--5----L----------5----|
--2--------0--------|-----------------------|-------------------------|
--------------------|-----------------------|-------------------------|
--------------------|-----------------------|-------------------------|

Q E E Q E E E S S E E S S E E E Q E E Q Q


------------------------|----------------------------|-----------------------|
------------------------|----------------------------|-----------------------|
-------2--4--5----4-----|-----2-4-2-----5-4-5--2-----|--2----L--2--4----5----|
--5------------------5--|--2---------2------------0--|-----------------------|
------------------------|----------------------------|-----------------------|
------------------------|----------------------------|-----------------------|

Q E E Q Q Q E E E E Q H H


-----------------------|------------------------|--------------------|
----------5--3---------|------------------------|--------------------|
--5----L----------5----|----------4--2--4-------|--------------------|
-----------------------|--5----L-----------5----|--2--------0--------|
-----------------------|------------------------|--------------------|
-----------------------|------------------------|--------------------|

NH
Q E E Q Q Q E E Q Q Q E E Q E E


-----------------------|---------L---------------|------------------------|
-----------------------|---------L--5--3---------|------------------------|
--2----L--2--4----5----|--5----L----------5----|-------2--4--5----4-----|
-----------------------|-------------------------|--5------------------5--|
-----------------------|-------------------------|------------------------|
-----------------------|-------------------------|------------------------|

E S S E E H E E E E E E E E E E E E Q Q


-------------------------|--------------------------|------------------------|
-------------------------|--------------------------|------------------------|
-----2-4-2---------------|--------------------------|------------------------|
--2---------2--0~--------|--------------------------|------------------------|
-------------------------|-----3-----------3--------|--------------7----5----|
-------------------------|--0--1--0--0--0--1--0--0--|--0--1--0--1--5----3----|

Q Q Q Q Q Q Q Q


----------------------|-------|-------|----------------------|
----------------------|-------|-------|----------------------|
----------------------|-------|-------|----------------------|
--2-------------------|-------|-------|--2----5----6----5----|
--2-------------------|-------|-------|--2----5----6----5----|
--0-------------------|-------|-------|--0----3----4----3----|

Q Q Q Q E E E E E E E E W


----------------------|--------------------------|-------------------|
----------------------|--------------------------|-------------------|
----------------------|--------------------------|-------------------|
----------------------|--5--2--------------------|--2----------------|
--2-------------------|--5--2--------------------|--2----------------|
--0-------------------|--3--0--------------------|--0----------------|

Q Q Q Q E S S S S S S E S S S S S S


----------------------|--------------------------------|
----------------------|--5--------------7--------------|
----------------------|--------------------------------|
--7----5----2----5----|--2--------------4--------------|
--7----5----2----5----|--------------------------------|
--5----3----0----3----|-----0-0-0-0-0-0----0-0-0-0-0-0-|

E S S S S S S E S S S S S S E S S S S S S E S S S S S S


--------------------------------|--10---------------8--------------|
--8--------------7--------------|----------------------------------|
--------------------------------|----------------------------------|
--5--------------4--------------|--12--------------10--------------|
--------------------------------|------0-0-0-0-0-0-----0-0-0-0-0-0-|
-----0-0-0-0-0-0----0-0-0-0-0-0-|----------------------------------|

E S S S S S S E S S S S S S E S S S S S S E S S S S S S


--7---------------8--------------|--------------------------------|
---------------------------------|--5--------------7--------------|
---------------------------------|--------------------------------|
--9--------------10--------------|--2--------------4--------------|
-----0-0-0-0-0-0-----0-0-0-0-0-0-|--------------------------------|
---------------------------------|-----0-0-0-0-0-0----0-0-0-0-0-0-|

E S S S S S S E S S S S S S E S S S S S S E S S E S S


--------------------------------|---------------------------------|
--8--------------7--------------|---------------------------------|
--------------------------------|---------------------------------|
--5--------------4--------------|--12--------------10------9------|
--------------------------------|------0-0-0-0-0-0-----0-0----0-0-|
-----0-0-0-0-0-0----0-0-0-0-0-0-|---------------------------------|

E S S E E E E E E E S S S S S S E S S S S S S


--------------------------------|--------------------------------|
--------------------------------|--5--------------7--------------|
--------------------------------|--------------------------------|
------------------9--10--9------|--2--------------4--------------|
--12--0-0-10--12------------12--|--------------------------------|
--------------------------------|-----0-0-0-0-0-0----0-0-0-0-0-0-|

E S S S S S S E S S S S S S E S S S S S S E S S S S S S


--------------------------------|--10---------------8--------------|
--8--------------7--------------|----------------------------------|
--------------------------------|----------------------------------|
--5--------------4--------------|--12--------------10--------------|
--------------------------------|------0-0-0-0-0-0-----0-0-0-0-0-0-|
-----0-0-0-0-0-0----0-0-0-0-0-0-|----------------------------------|

E S S S S S S E S S S S S S E S S S S S S E S S S S S S


--7---------------8--------------|--------------------------------|
---------------------------------|--5--------------7--------------|
---------------------------------|--------------------------------|
--9--------------10--------------|--2--------------4--------------|
-----0-0-0-0-0-0-----0-0-0-0-0-0-|--------------------------------|
---------------------------------|-----0-0-0-0-0-0----0-0-0-0-0-0-|

E S S S S S S E S S S S S S E S S S S S S E S S E S S


--------------------------------|---------------------------------|
--8--------------7--------------|---------------------------------|
--------------------------------|---------------------------------|
--5--------------4--------------|--12--------------10------9------|
--------------------------------|------0-0-0-0-0-0-----0-0----0-0-|
-----0-0-0-0-0-0----0-0-0-0-0-0-|---------------------------------|

E S S E E E E E E S S S S S S S S Q Q


--------------------------------|----------------------------|
--------------------------------|----------------------------|
--------------------------------|------------------2----2----|
------------------9--10--9------|------------------2----2----|
--12--0-0-10--12------------12--|------------------0----0----|
--------------------------------|--0-0-0-0-0-0-0-0-----------|

S S S S S S S S Q Q S S S S S S S S E E E E


----------------------------|--------------------------------|
----------------------------|--------------------------------|
------------------5----5----|------------------5-------------|
------------------5----5----|------------------7-------------|
------------------3----3----|------------------7--0-----0--|
--3-3-3-3-3-3-3-3-----------|--5-5-5-5-5-5-5-5-5-----3-------|

E S S S S S S S S S S S S S S Q H S S S S


---------------------------------|------------------------|
---------------------------------|------------------------|
---------------------------------|------------------------|
--5------------------------------|------------------------|
--5------------------------------|--2----2----------------|
--3--3-3-3-3-3-3-0-0-0-0-0-0-0-0-|--0----0--------0-0-0-0-|

E S S S S S S E S S S S S S E S S S S S S E S S S S S S


--------------------------------|--------------------------------|
--------------------------------|--------------------------------|
--------------------------------|--5-----------------------------|
--5--------------2--------------|--7--------------5--------------|
--5--------------2--------------|--7--------------5--------------|
--3--3-3-3-3-3-3-0--0-0-0-0-0-0-|--5--5-5-5-5-5-5-3--3-3-3-3-3-3-|

Q E E E E E E S S S S S S S S Q Q


-------------------------|----------------------------|
-------------------------|----------------------------|
-------------------0--0--|------------------2----2----|
--2----2--2--2--2--2--2--|------------------2----2----|
--2----2--2--2--2--2--2--|------------------0----0----|
--0----0--0--0--0--0--0--|--0-0-0-0-0-0-0-0-----------|

S S S S S S S S Q Q S S S S S S S S E E E E


----------------------------|--------------------------------|
----------------------------|--------------------------------|
------------------5----5----|------------------5-------------|
------------------5----5----|------------------7-------------|
------------------3----3----|------------------7--0-----0--|
--3-3-3-3-3-3-3-3-----------|--5-5-5-5-5-5-5-5-5-----3-------|

E S S S S S S S S S S S S S S Q H Q


---------------------------------|---------------------|
---------------------------------|---------------------|
---------------------------------|----------------0----|
--5------------------------------|---------------------|
--5------------------------------|--2----2-------------|
--3--3-3-3-3-3-3-0-0-0-0-0-0-0-0-|--0----0-------------|

Q Q E E E E Q E E Q E E W


------------------------|------------------------|--------------------|
------------------------|------------------------|--------------------|
--5----0----0--2--4--0--|--5----4--5--4----2--4--|--0~----------------|
------------------------|------------------------|--------------------|
------------------------|------------------------|--------------------|
------------------------|------------------------|--------------------|
-------------------|-------------------|-------------------|-------------------|
-------------------|-------------------|-------------------|-------------------|
-------------------|-------------------|-------------------|-------------------|
-------------------|-------------------|-------------------|-------------------|
-------------------|-------------------|-------------------|-------------------|
-------------------|-------------------|-------------------|-------------------|
-------------------|-------------------|-------------------|-------------------|
-------------------|-------------------|-------------------|-------------------|
-------------------|-------------------|-------------------|-------------------|
-------------------|-------------------|-------------------|-------------------|
-------------------|-------------------|-------------------|-------------------|
-------------------|-------------------|-------------------|-------------------|
-------------------|-------------------|-------------------|-------------------|
-------------------|-------------------|-------------------|-------------------|
-------------------|-------------------|-------------------|-------------------|
-------------------|-------------------|-------------------|-------------------|
-------------------|-------------------|-------------------|-------------------|
-------------------|-------------------|-------------------|-------------------|
-------------------|-------------------|-------------------|-------------------|
-------------------|-------------------|-------------------|-------------------|
-------------------|-------------------|-------------------|-------------------|
-------------------|-------------------|-------------------|-------------------|
-------------------|-------------------|-------------------|-------------------|
-------------------|-------------------|-------------------|-------------------|
-------|-------|-------|-------|-------|-------|-------|-------|
-------|-------|-------|-------|-------|-------|-------|-------|
-------|-------|-------|-------|-------|-------|-------|-------|
-------|-------|-------|-------|-------|-------|-------|-------|
-------|-------|-------|-------|-------|-------|-------|-------|
-------|-------|-------|-------|-------|-------|-------|-------|

Q E E Q Q Q E E Q Q Q E E E E Q


-----------------------|-------L---------------|------------------------|
-----------------------|-------L--5--3---------|------------------------|
--2----L--2--4----5----|--5----L----------5----|----------4--2--4-------|
-----------------------|-----------------------|--5----L-----------5----|
-----------------------|-----------------------|------------------------|
-----------------------|-----------------------|------------------------|

NH
H H Q E E Q Q Q E E Q Q


--------------------|-----------------------|-------------------------|
--------------------|-----------------------|------------5--3---------|
--------------------|--2----L--2--4----5----|--5----L----------5----|
--2--------0--------|-----------------------|-------------------------|
--------------------|-----------------------|-------------------------|
--------------------|-----------------------|-------------------------|

Q E E Q E E E S S E E S S E E E Q E E Q Q


------------------------|----------------------------|-----------------------|
------------------------|----------------------------|-----------------------|
-------2--4--5----4-----|-----2-4-2-----5-4-5--2-----|--2----L--2--4----5----|
--5------------------5--|--2---------2------------0--|-----------------------|
------------------------|----------------------------|-----------------------|
------------------------|----------------------------|-----------------------|

Q E E Q Q Q E E E E Q H H


-----------------------|------------------------|--------------------|
----------5--3---------|------------------------|--------------------|
--5----L----------5----|----------4--2--4-------|--------------------|
-----------------------|--5----L-----------5----|--2--------0--------|
-----------------------|------------------------|--------------------|
-----------------------|------------------------|--------------------|

NH
Q E E Q Q Q E E Q Q Q E E Q E E


-----------------------|---------L---------------|------------------------|
-----------------------|---------L--5--3---------|------------------------|
--2----L--2--4----5----|--5----L----------5----|-------2--4--5----4-----|
-----------------------|-------------------------|--5------------------5--|
-----------------------|-------------------------|------------------------|
-----------------------|-------------------------|------------------------|

E S S E E H E E E E E E E E E E E E Q Q


-------------------------|--------------------------|------------------------|
-------------------------|--------------------------|------------------------|
-----2-4-2---------------|--------------------------|------------------------|
--2---------2--0~--------|--------------------------|------------------------|
-------------------------|-----3-----------3--------|--------------7----5----|
-------------------------|--0--1--0--0--0--1--0--0--|--0--1--0--1--5----3----|

Q Q Q Q Q Q Q Q


----------------------|-------|-------|----------------------|
----------------------|-------|-------|----------------------|
----------------------|-------|-------|----------------------|
--2-------------------|-------|-------|--2----5----6----5----|
--2-------------------|-------|-------|--2----5----6----5----|
--0-------------------|-------|-------|--0----3----4----3----|

Q Q Q Q E E E E E E E E W


----------------------|--------------------------|-------------------|
----------------------|--------------------------|-------------------|
----------------------|--------------------------|-------------------|
----------------------|--5--2--------------------|--2----------------|
--2-------------------|--5--2--------------------|--2----------------|
--0-------------------|--3--0--------------------|--0----------------|

Q Q Q Q Q Q Q Q


----------------------|----------------------|-------|-------|
----------------------|----------------------|-------|-------|
----------------------|----------------------|-------|-------|
--7----5----2----5----|--2-------------------|-------|-------|
--7----5----2----5----|--2-------------------|-------|-------|
--5----3----0----3----|--0-------------------|-------|-------|

Q Q Q Q Q Q Q Q E E E E E E E E


----------------------|----------------------|--------------------------|
----------------------|----------------------|--------------------------|
----------------------|----------------------|--------------------------|
--2----5----6----5----|----------------------|--5--2--------------------|
--2----5----6----5----|--2-------------------|--5--2--------------------|
--0----3----4----3----|--0-------------------|--3--0--------------------|

W Q Q Q Q Q Q Q Q


-------------------|----------------------|----------------------||
-------------------|----------------------|----------------------||
-------------------|----------------------|----------------------||
--2----------------|--7----5----2----5----|--2-------------------||
--2----------------|--7----5----2----5----|--2-------------------||
--0----------------|--5----3----0----3----|--0-------------------||

Guitar 2

E E. S S S S S S S S S S S E E. S S S S S S S S S S S


E||-------------------------------|-------------------------------|
B||-------------------------------|-------------------------------|
G||-------------------------------|-------------------------------|
D||--2----------------------------|-------------------------------|
A||--2----------------------------|-------------------------------|
E||--0--0---0-0-0-0-0-0-0-0-0-0-0-|--0--0---0-0-0-0-0-0-0-0-0-0-0-|

E E. S S S S S S S S S S S Q Q Q Q


-------------------------------|----------------------|
-------------------------------|----------------------|
-------------------------------|----------------------|
-------------------------------|--2----5----6----5----|
-------------------------------|--2----5----6----5----|
--0--0---0-0-0-0-0-0-0-0-0-0-0-|--0----3----4----3----|

E E. S S S S S S S S S S S E E. S S S S S S S S S S S


-------------------------------|-------------------------------|
-------------------------------|-------------------------------|
-------------------------------|-------------------------------|
--2----------------------------|-------------------------------|
--2----------------------------|-------------------------------|
--0--0---0-0-0-0-0-0-0-0-0-0-0-|--0--0---0-0-0-0-0-0-0-0-0-0-0-|

E E. S S S S S S S S S S S Q Q Q Q


-------------------------------|----------------------|
-------------------------------|----------------------|
-------------------------------|----------------------|
-------------------------------|--2----5----6----5----|
-------------------------------|--2----5----6----5----|
--0--0---0-0-0-0-0-0-0-0-0-0-0-|--0----3----4----3----|

E E. S S S S S S S S S S S E E. S S S S S S S S S S S


-------------------------------|-------------------------------|
-------------------------------|-------------------------------|
-------------------------------|-------------------------------|
--2----------------------------|-------------------------------|
--2----------------------------|-------------------------------|
--0--0---0-0-0-0-0-0-0-0-0-0-0-|--0--0---0-0-0-0-0-0-0-0-0-0-0-|

E E. S S S S S S S S S S S Q Q Q Q


-------------------------------|----------------------|
-------------------------------|----------------------|
-------------------------------|----------------------|
-------------------------------|--2----5----6----5----|
-------------------------------|--2----5----6----5----|
--0--0---0-0-0-0-0-0-0-0-0-0-0-|--0----3----4----3----|

E E. S S S S S S S S S S S E E. S S S S S S S S S S S


-------------------------------|-------------------------------|
-------------------------------|-------------------------------|
-------------------------------|-------------------------------|
--2----------------------------|-------------------------------|
--2----------------------------|-------------------------------|
--0--0---0-0-0-0-0-0-0-0-0-0-0-|--0--0---0-0-0-0-0-0-0-0-0-0-0-|

E E. S S S S S S S S S S S Q Q Q Q


-------------------------------|----------------------|
-------------------------------|----------------------|
-------------------------------|----------------------|
-------------------------------|--2----5----6----5----|
-------------------------------|--2----5----6----5----|
--0--0---0-0-0-0-0-0-0-0-0-0-0-|--0----3----4----3----|

E E. S S S S S S S S S S S E E. S S S S S S S S S S S


-------------------------------|-------------------------------|
-------------------------------|-------------------------------|
-------------------------------|-------------------------------|
--2----------------------------|-------------------------------|
--2----------------------------|-------------------------------|
--0--0---0-0-0-0-0-0-0-0-0-0-0-|--0--0---0-0-0-0-0-0-0-0-0-0-0-|

E E. S S S S S S S S S S S Q Q Q Q


-------------------------------|----------------------|
-------------------------------|----------------------|
-------------------------------|----------------------|
-------------------------------|--2----5----6----5----|
-------------------------------|--2----5----6----5----|
--0--0---0-0-0-0-0-0-0-0-0-0-0-|--0----3----4----3----|

E E. S S S S S S S S S S S E E. S S S S S S S S S S S


-------------------------------|-------------------------------|
-------------------------------|-------------------------------|
-------------------------------|-------------------------------|
--2----------------------------|-------------------------------|
--2----------------------------|-------------------------------|
--0--0---0-0-0-0-0-0-0-0-0-0-0-|--0--0---0-0-0-0-0-0-0-0-0-0-0-|

E E. S S S S S S S S S S S Q Q Q Q


-------------------------------|----------------------|-------|
-------------------------------|----------------------|-------|
-------------------------------|----------------------|-------|
-------------------------------|--7----5----2----5----|-------|
-------------------------------|--7----5----2----5----|-------|
--0--0---0-0-0-0-0-0-0-0-0-0-0-|--5----3----0----3----|-------|

E S S S S S S S S S S S S S S E S S S S S S E S S S S S S


---------------------------------|--------------------------------|
---------------------------------|--------------------------------|
---------------------------------|--------------------------------|
--2------------------------------|--5--------------7--------------|
--2------------------------------|--5--------------7--------------|
--0--0-0-0-0-0-0-0-0-0-0-0-0-0-0-|--3--3-3-3-3-3-3-5--5-5-5-5-5-5-|

E S S S S S S S S S S S S S S E S S S S S S E S S S S S S


---------------------------------|--------------------------------|
---------------------------------|--------------------------------|
---------------------------------|--------------------------------|
--2------------------------------|--7--------------5--------------|
--2------------------------------|--7--------------5--------------|
--0--0-0-0-0-0-0-0-0-0-0-0-0-0-0-|--5--5-5-5-5-5-5-3--3-3-3-3-3-3-|

E S S S S S S S S S S S S S S E S S S S S S E S S S S S S


---------------------------------|--------------------------------|
---------------------------------|--------------------------------|
---------------------------------|--------------------------------|
--2------------------------------|--5--------------7--------------|
--2------------------------------|--5--------------7--------------|
--0--0-0-0-0-0-0-0-0-0-0-0-0-0-0-|--3--3-3-3-3-3-3-5--5-5-5-5-5-5-|

E S S S S S S S S S S S S S S E S S S S S S E S S S S S S


---------------------------------|--------------------------------|
---------------------------------|--------------------------------|
---------------------------------|--------------------------------|
--5------------------------------|--------------------------------|
--3--3-3-3-3-3-3-3-3-3-3-3-3-3-3-|--7--------------5--------------|
---------------------------------|--5--5-5-5-5-5-5-3--3-3-3-3-3-3-|

E S S S S S S S S S S S S S S E S S S S S S E S S S S S S


---------------------------------|--------------------------------|
---------------------------------|--------------------------------|
---------------------------------|--------------------------------|
--2------------------------------|--5--------------7--------------|
--2------------------------------|--5--------------7--------------|
--0--0-0-0-0-0-0-0-0-0-0-0-0-0-0-|--3--3-3-3-3-3-3-5--5-5-5-5-5-5-|

E S S S S S S S S S S S S S S E S S S S S S E S S S S S S


---------------------------------|--------------------------------|
---------------------------------|--------------------------------|
---------------------------------|--------------------------------|
--2------------------------------|--7--------------5--------------|
--2------------------------------|--7--------------5--------------|
--0--0-0-0-0-0-0-0-0-0-0-0-0-0-0-|--5--5-5-5-5-5-5-3--3-3-3-3-3-3-|

E S S S S S S S S S S S S S S E S S S S S S E S S S S S S


---------------------------------|--------------------------------|
---------------------------------|--------------------------------|
---------------------------------|--------------------------------|
--2------------------------------|--5--------------7--------------|
--2------------------------------|--5--------------7--------------|
--0--0-0-0-0-0-0-0-0-0-0-0-0-0-0-|--3--3-3-3-3-3-3-5--5-5-5-5-5-5-|

E S S S S S S S S S S S S S S E S S S S S S E S S S S S S


---------------------------------|--------------------------------|
---------------------------------|--------------------------------|
---------------------------------|--------------------------------|
--5------------------------------|--------------------------------|
--3--3-3-3-3-3-3-3-3-3-3-3-3-3-3-|--7--------------5--------------|
---------------------------------|--5--5-5-5-5-5-5-3--3-3-3-3-3-3-|

E S S S S S S Q Q E S S S S S S Q Q


---------------------------|---------------------------|
---------------------------|---------------------------|
-----------------2----2----|--5--------------5----5----|
--2--------------2----2----|--5--------------5----5----|
--0--0-0-0-0-0-0-0----0----|--3--3-3-3-3-3-3-3----3----|
---------------------------|---------------------------|

E S S S S S S E E E E E S S S S S S E E E E


-----------------------------|-----------------------------|
-----------------------------|-----------------------------|
-----------------------------|-----------------------------|
--5-----------------5-----5--|--2--------------2--2--2--2--|
--5-----------------5-----5--|--2--------------2--2--2--2--|
--3--3-3-3-3-3-3-3--3--3--3--|--0--0-0-0-0-0-0-0--0--0--0--|

E S S S S S S Q Q E S S S S S S Q Q


---------------------------|---------------------------|
---------------------------|---------------------------|
-----------------2----2----|--5--------------5----5----|
--2--------------2----2----|--5--------------5----5----|
--0--0-0-0-0-0-0-0----0----|--3--3-3-3-3-3-3-3----3----|
---------------------------|---------------------------|

E S S S S S S E E E E E S S S S S S E E E E


-----------------------------|-----------------------------|
-----------------------------|-----------------------------|
-----------------------------|-----------------------------|
--5-----------------5-----5--|--2--------------2--2--2--2--|
--5-----------------5-----5--|--2--------------2--2--2--2--|
--3--3-3-3-3-3-3-3--3--3--3--|--0--0-0-0-0-0-0-0--0--0--0--|

E S S S S S S Q Q E S S S S S S Q Q


---------------------------|---------------------------|
---------------------------|---------------------------|
-----------------2----2----|--5--------------5----5----|
--2--------------2----2----|--5--------------5----5----|
--0--0-0-0-0-0-0-0----0----|--3--3-3-3-3-3-3-3----3----|
---------------------------|---------------------------|

E S S S S S S E E E E E S S S S S S E E E E


-----------------------------|-----------------------------|
-----------------------------|-----------------------------|
-----------------------------|-----------------------------|
--5-----------------5-----5--|--2--------------2--2--2--2--|
--5-----------------5-----5--|--2--------------2--2--2--2--|
--3--3-3-3-3-3-3-3--3--3--3--|--0--0-0-0-0-0-0-0--0--0--0--|

E S S S S S S Q Q E S S S S S S Q Q


---------------------------|---------------------------|
---------------------------|---------------------------|
-----------------2----2----|--5--------------5----5----|
--2--------------2----2----|--5--------------5----5----|
--0--0-0-0-0-0-0-0----0----|--3--3-3-3-3-3-3-3----3----|
---------------------------|---------------------------|

E S S S S S S E E E E E S S S S S S E E E E


-----------------------------|-----------------------------|
-----------------------------|-----------------------------|
-----------------------------|-----------------------------|
--5-----------------5-----5--|--2--------------2--2--2--2--|
--5-----------------5-----5--|--2--------------2--2--2--2--|
--3--3-3-3-3-3-3-3--3--3--3--|--0--0-0-0-0-0-0-0--0--0--0--|

E E Q E E Q E E E E Q Q


------------------------|------------------------|
------------------------|------------------------|
------------------------|------------------------|
------------------------|------------------------|
--2--3-------2--3-------|--2--3--2--3--7----5----|
--0--1-------0--1-------|--0--1--0--1--5----3----|

E E. S S S S S S S S S S S E E. S S S S S S S S S S S


-------------------------------|-------------------------------|
-------------------------------|-------------------------------|
-------------------------------|-------------------------------|
--2----------------------------|-------------------------------|
--2----------------------------|-------------------------------|
--0--0---0-0-0-0-0-0-0-0-0-0-0-|--0--0---0-0-0-0-0-0-0-0-0-0-0-|

E E. S S S S S S S S S S S Q Q Q Q


-------------------------------|----------------------|
-------------------------------|----------------------|
-------------------------------|----------------------|
-------------------------------|--2----5----6----5----|
-------------------------------|--2----5----6----5----|
--0--0---0-0-0-0-0-0-0-0-0-0-0-|--0----3----4----3----|

E E. S S S S S S S S S S S E E. S S S S S S S S S S S


-------------------------------|-------------------------------|
-------------------------------|-------------------------------|
-------------------------------|-------------------------------|
--2----------------------------|-------------------------------|
--2----------------------------|-------------------------------|
--0--0---0-0-0-0-0-0-0-0-0-0-0-|--0--0---0-0-0-0-0-0-0-0-0-0-0-|

E E. S S S S S S S S S S S Q Q Q Q


-------------------------------|----------------------|
-------------------------------|----------------------|
-------------------------------|----------------------|
-------------------------------|--7----5----2----5----|
-------------------------------|--7----5----2----5----|
--0--0---0-0-0-0-0-0-0-0-0-0-0-|--5----3----0----3----|

E S S S S S S E S S S S S S E S S S S S S E S S S S S S


--------------------------------|--------------------------------|
--------------------------------|--------------------------------|
--------------------------------|--------------------------------|
--2--------------4--------------|--5--------------4--------------|
--------------------------------|--------------------------------|
-----0-0-0-0-0-0----0-0-0-0-0-0-|-----0-0-0-0-0-0----0-0-0-0-0-0-|

E S S S S S S E S S S S S S E S S S S S S E S S S S S S


----------------------------------|---------------------------------|
----------------------------------|---------------------------------|
----------------------------------|---------------------------------|
--12--------------10--------------|--9--------------10--------------|
------0-0-0-0-0-0-----0-0-0-0-0-0-|-----0-0-0-0-0-0-----0-0-0-0-0-0-|
----------------------------------|---------------------------------|

E S S S S S S E S S S S S S E S S S S S S E S S S S S S


--------------------------------|--------------------------------|
--------------------------------|--------------------------------|
--------------------------------|--------------------------------|
--2--------------4--------------|--5--------------4--------------|
--------------------------------|--------------------------------|
-----0-0-0-0-0-0----0-0-0-0-0-0-|-----0-0-0-0-0-0----0-0-0-0-0-0-|

E S S S S S S E S S E S S E S S E E E E E E


---------------------------------|--------------------------------|
---------------------------------|--------------------------------|
---------------------------------|--------------------------------|
--12--------------10------9------|------------------9--10--9------|
------0-0-0-0-0-0-----0-0----0-0-|--12--0-0-10--12------------12--|
---------------------------------|--------------------------------|

E S S S S S S E S S S S S S E S S E E E S S S S S S


--------------------------------|------------------------------|
--------------------------------|------------------------------|
--------------------------------|------------------------------|
--2--------------4--------------|--5------4--5--4--------------|
--------------------------------|------------------------------|
-----0-0-0-0-0-0----0-0-0-0-0-0-|-----0-0----------0-0-0-0-0-0-|

E S S E E E S S S S S S E S S S S S S E S S S S S S


----------------------------------|---------------------------------|
----------------------------------|---------------------------------|
----------------------------------|---------------------------------|
--12------10--12--10--------------|--9--------------10--------------|
------0-0-------------0-0-0-0-0-0-|-----0-0-0-0-0-0-----0-0-0-0-0-0-|
----------------------------------|---------------------------------|

E S S S S S S E S S S S S S E S S E E E S S S S S S


--------------------------------|------------------------------|
--------------------------------|------------------------------|
--------------------------------|------------------------------|
--2--------------4--------------|--5------4--5--4--------------|
--------------------------------|------------------------------|
-----0-0-0-0-0-0----0-0-0-0-0-0-|-----0-0----------0-0-0-0-0-0-|

E S S S S S S E S S E S S E S S E E E E E E


---------------------------------|--------------------------------|
---------------------------------|--------------------------------|
---------------------------------|--------------------------------|
--12--------------10------9------|------------------9--10--9------|
------0-0-0-0-0-0-----0-0----0-0-|--12--0-0-10--12------------12--|
---------------------------------|--------------------------------|

S S S S S S S S Q Q S S S S S S S S Q Q


----------------------------|----------------------------|
----------------------------|----------------------------|
------------------2----2----|------------------5----5----|
------------------2----2----|------------------5----5----|
------------------0----0----|------------------3----3----|
--0-0-0-0-0-0-0-0-----------|--3-3-3-3-3-3-3-3-----------|

S S S S S S S S E E E E E S S S S S S S S S S S S S S


--------------------------------|---------------------------------|
--------------------------------|---------------------------------|
------------------5-------------|---------------------------------|
------------------7-------------|--5------------------------------|
------------------7--0-----0--|--5------------------------------|
--5-5-5-5-5-5-5-5-5-----3-------|--3--3-3-3-3-3-3-0-0-0-0-0-0-0-0-|

Q H S S S S E S S S S S S E S S S S S S


------------------------|--------------------------------|
------------------------|--------------------------------|
------------------------|--------------------------------|
------------------------|--5--------------2--------------|
--2----2----------------|--5--------------2--------------|
--0----0--------0-0-0-0-|--3--3-3-3-3-3-3-0--0-0-0-0-0-0-|

E S S S S S S E S S S S S S Q E E E E E E


--------------------------------|-------------------------|
--------------------------------|-------------------------|
--5-----------------------------|-------------------0--0--|
--7--------------5--------------|--2----2--2--2--2--2--2--|
--7--------------5--------------|--2----2--2--2--2--2--2--|
--5--5-5-5-5-5-5-3--3-3-3-3-3-3-|--0----0--0--0--0--0--0--|

S S S S S S S S Q Q S S S S S S S S Q Q


----------------------------|----------------------------|
----------------------------|----------------------------|
------------------2----2----|------------------5----5----|
------------------2----2----|------------------5----5----|
------------------0----0----|------------------3----3----|
--0-0-0-0-0-0-0-0-----------|--3-3-3-3-3-3-3-3-----------|

S S S S S S S S E E E E E S S S S S S S S S S S S S S


--------------------------------|---------------------------------|
--------------------------------|---------------------------------|
------------------5-------------|---------------------------------|
------------------7-------------|--5------------------------------|
------------------7--0-----0--|--5------------------------------|
--5-5-5-5-5-5-5-5-5-----3-------|--3--3-3-3-3-3-3-0-0-0-0-0-0-0-0-|

Q H S S S S E S S S S S S E S S S S S S


------------------------|--------------------------------|
------------------------|--------------------------------|
------------------------|--------------------------------|
------------------------|--5--------------2--------------|
--2----2----------------|--5--------------2--------------|
--0----0--------0-0-0-0-|--3--3-3-3-3-3-3-0--0-0-0-0-0-0-|

E S S S S S S E S S S S S S Q E E E E E E


--------------------------------|-------------------------|
--------------------------------|-------------------------|
--5-----------------------------|-------------------0--0--|
--7--------------5--------------|--2----2--2--2--2--2--2--|
--7--------------5--------------|--2----2--2--2--2--2--2--|
--5--5-5-5-5-5-5-3--3-3-3-3-3-3-|--0----0--0--0--0--0--0--|


--------------------------|--------------------------|
--------------------------|--------------------------|
--------------------------|--------------------------|
--------------------------|--------------------------|
--2--2-----2--2--2-----2--|--2--2-----2--2--2-----2--|
--0--0-----0--0--0-----0--|--0--0-----0--0--0-----0--|

E E. S S S S S S S S S S S E E. S S S S S S S S S S S


-------------------------------|-------------------------------|
-------------------------------|-------------------------------|
-------------------------------|-------------------------------|
--2----------------------------|-------------------------------|
--2----------------------------|-------------------------------|
--0--0---0-0-0-0-0-0-0-0-0-0-0-|--0--0---0-0-0-0-0-0-0-0-0-0-0-|


--------------------------|--------------------------|
--------------------------|--------------------------|
--------------------------|--------------------------|
--------------------------|--------------------------|
--2--2-----2--2--2-----2--|--2--2-----2--2--2-----2--|
--0--0-----0--0--0-----0--|--0--0-----0--0--0-----0--|

E E. S S S S S S S S S S S E E. S S S S S S S S S S S


-------------------------------|-------------------------------|
-------------------------------|-------------------------------|
-------------------------------|-------------------------------|
--2----------------------------|-------------------------------|
--2----------------------------|-------------------------------|
--0--0---0-0-0-0-0-0-0-0-0-0-0-|--0--0---0-0-0-0-0-0-0-0-0-0-0-|


--------------------------|--------------------------|
--------------------------|--------------------------|
--------------------------|--------------------------|
--------------------------|--------------------------|
--2--2-----2--2--2-----2--|--2--2-----2--2--2-----2--|
--0--0-----0--0--0-----0--|--0--0-----0--0--0-----0--|

E E. S S S S S S S S S S S E E. S S S S S S S S S S S


-------------------------------|-------------------------------|
-------------------------------|-------------------------------|
-------------------------------|-------------------------------|
--2----------------------------|-------------------------------|
--2----------------------------|-------------------------------|
--0--0---0-0-0-0-0-0-0-0-0-0-0-|--0--0---0-0-0-0-0-0-0-0-0-0-0-|


--------------------------|--------------------------|
--------------------------|--------------------------|
--------------------------|--------------------------|
--------------------------|--------------------------|
--2--2-----2--2--2-----2--|--2--2-----2--2--2-----2--|
--0--0-----0--0--0-----0--|--0--0-----0--0--0-----0--|

E E. S S S S S S S S S S S E E. S S S S S S S S S S S


-------------------------------|-------------------------------|
-------------------------------|-------------------------------|
-------------------------------|-------------------------------|
--2----------------------------|-------------------------------|
--2----------------------------|-------------------------------|
--0--0---0-0-0-0-0-0-0-0-0-0-0-|--0--0---0-0-0-0-0-0-0-0-0-0-0-|

E S S S S S S S S S S S S S S E S S S S S S E S S S S S S


---------------------------------|--------------------------------|
---------------------------------|--------------------------------|
---------------------------------|--------------------------------|
--2------------------------------|--5--------------7--------------|
--2------------------------------|--5--------------7--------------|
--0--0-0-0-0-0-0-0-0-0-0-0-0-0-0-|--3--3-3-3-3-3-3-5--5-5-5-5-5-5-|

E S S S S S S S S S S S S S S E S S S S S S E S S S S S S



To play the this songs, including Slayer of Light by The Romantics by ukulele, the most crucial basic ukulele chords to learn are C chord, D chord, G chord, and Em chord.
These set you up to play a ton of songs, and each of them is easy to learn.

Leave a Reply

Your email address will not be published.