Some Other Sucker’s Parade by Del Amitri Ukulele Chords

Posted on

If you are looking for Some Other Sucker’s Parade ukulele chords, you have come to the right site.
You can play versatile instrument Some Other Sucker’s Parade using ukulele or guitar.
This song by Del Amitri can also be played by that instruments.
=

Some Other Sucker’s Parade chords has rhythm and included in Some Other Sucker’s Parade (1997) album.
You can also find other musical genres, including jazz ukulele chords, country music ukulele chords, pop ukulele chords, world music ukulele chords, and rock ukulele chords here.

Some Other Sucker’s Parade by Del Amitri Ukulele Chords

Intro
Gt[+]r 1[+][+][+][+][+][+][+][+][+][+][+]


E|------------------------|--------------------|-----------------------|
B|------3-----2--------0--|----0------3-----3--|---------2-------------|
G|---------------2--------|--------------2-----|---2--2-------2-----0--|
D|---0-----0--------0-----|--------------------|-----------------2-----|
A|------------------------|--------------------|-----------------------|
E|------------------------|--------------------|-----------------------|

Gt[+]r 1[+][+][+][+][+][+][+]


----------------------|-------------------------|
--3---3--3----3----3--|----------3--5--3--0--3--|
----------------------|----2--------------------|
----------------------|-------4-----------------|
----------------------|-------------------------|
----------------------|-------------------------|

Gtr 2


----5----4----3----2--|-------------------------|
----7----6----5----3--|-------------------------|
----------------------|-------------------------|
----------------------|-------------------------|
----------------------|-------------------------|
----------------------|-------------------------|


I must have had a million damned unlucky days
But there ain’t no cloud that a bottle can’t chase away
I’ve done my deal of living, ran from place to place
But when the roof comes in I don't wanna take it straight

They say have faith any soul can make it
But hell why should I wait
Till the clouds go rain on some other suckers parade

I’ve had my share of heartaches, let downs and tricks
But the everyday blues is the one thing I can’t fix
I’ve heard those holy bretheren, muttering my name
But it ain’t no sin to drink when you’re suffering

Patience they say, is a saintly virtue,
But hell why should I wait
Till the clouds go rain on some other suckers parade

When every heavy sky, just empties on your fate
Sometimes keeping dry is something to celebrate

Solo over

They say have faith any soul can make it
But hell why should I wait
Till the clouds go rain on some other suckers parade

D til end

http://www.sparkystabs.co.uk

To play the this songs, including Some Other Sucker’s Parade by Del Amitri by ukulele, the most crucial basic ukulele chords to learn are C chord, D chord, G chord, and Em chord.
These set you up to play a a lot of songs, and each of them is easy to master.

Leave a Reply

Your email address will not be published.