Somebody Sold Me by Ukulele Chords

Posted on

If you are looking for Somebody Sold Me ukulele chords, you have visit to the right place.
You can play versatile instrument Somebody Sold Me using ukulele or guitar.
This song by can also be played by that instruments.
=

Somebody Sold Me chords has rhythm and included in Wordplay (2006) album.
You can also find another musical genres, including jazz ukulele chords, country music ukulele chords, pop ukulele chords, world music ukulele chords, and rock ukulele chords here.

Somebody Sold Me by Ukulele Chords


I think this is right. Um.. great song.

Somebody Sold me by Apologetix

Eb Tuning (Eb Ab Db Gb Bb Eb)

Intro
[—–]


Eb [------------------------]
Ab [-0-----0------0------0--]
Db [-7-----9-----11-----12--] x2
Gb [------------------------]
Bb [------------------------]
Eb [------------------------]
Eb [---------------------------------------]
Ab [--0----0----0----0----0----0----0------]
Db [-11---12---14---12---11---12---11------]
Gb [---------------------------------------]
Bb [---------------------------------------]
Eb [---------------------------------------]

Verse
[—–]
Mute strings with finger and slide up to just
before 12th fret and back down fretboard again
then play:


Eb [-14-14-14-14-15-15-15-15-17-17-17-17-15-15-15-15-]
Ab [--0--0--0--0--0--0--0--0--0--0--0--0--0--0--0--0-]
Db [-11-11-11-11-12-12-12-12-14-14-14-14-12-12-12-12-]
Gb [-------------------------------------------------]
Bb [-------------------------------------------------]
Eb [-------------------------------------------------]

Bridge


------
Eb [-----------------------------]
Ab [--0------0------0------0-----]
Db [-12-----14-----16-----19-----] play each note 8 times
Gb [-----------------------------]
Bb [-----------------------------]
Eb [-----------------------------]
Eb [----------------------------------------------]
Ab [-15-15-15-15-15-15-15-15-15-15-15-15-15-15---]
Db [--0-14-14-14--0-14-14-14--0-14-14-14-14-14---]
Gb [-12-12-12-12-12-12-12-12-12-12-12-12-12-12----]
Bb [----------------------------------------------]
Eb [----------------------------------------------]

Chorus


------
Eb [---2-----3-----5-----2---]
Ab [---3-----3-----5-----2---]
Db [---4-----4-----6-----3---]
Gb [---4-----5-----7-----4---]
Bb [---2-----5-----7-----4---]
Eb [-------------------------]

Outro
[—–]


Eb [-12--10----12--10----12--10--------------12-10-----------]
Ab [-----------------------------12-10-12-----------12-10-12-]
Db [---------------------------------------------------------]
Gb [---------------------------------------------------------]
Bb [---------------------------------------------------------] x2
Eb [---------------------------------------------------------]
Eb [--12--10-----------]
Ab [----------12-10-12-]
Db [-------------------]
Gb [-------------------] repeat
Bb [-------------------]
Eb [-------------------]

then chorus is played 1 more time

To play the this songs, including Somebody Sold Me by by ukulele, the most important basic ukulele chords to learn are C chord, D chord, G chord, and Em chord.
These set you up to play a a lot of songs, and each of them is easy to master.

Gravatar Image
Like to play Ukulele and Sudoku Game

Leave a Reply

Your email address will not be published. Required fields are marked *