Sometimes Jacks Rule the Realm / [Coda] by 311 Ukulele Chords

Posted on

If you are looking for Sometimes Jacks Rule the Realm / [Coda] ukulele chords, you’ve come to the right site.
You can play versatile instrument Sometimes Jacks Rule the Realm / [Coda] using ukulele or guitar.
This song by 311 can also be played by that instruments.
=

Sometimes Jacks Rule the Realm / [Coda] chords has rhythm and included in Other Songs album.
You can also find other musical style, including jazz ukulele chords, country music ukulele chords, pop ukulele chords, world music ukulele chords, and rock ukulele chords here.

Sometimes Jacks Rule the Realm / [Coda] by 311 Ukulele Chords

!!!!!THE CORRECT/COMPLETED “SOMETIMES JACKS RULE THE REALM” TAB!!!!!

-THIS IS A GREAT SONG, AND IT NEEDS A CORRECT/COMPLETED TAB.

-I Worked very long and hard on this tab for 2 days… SO IT’S GOOD

-Look out for how many dashes I put in between the numbers. That lets you know the
of it.

-Watch the time lengths as well. I count the time by the last strum.

-Look for my breaks, showing a switch from piece to piece.

Band: 311
Song: Sometimes Jacks Rule The Realm
Album: Evolver (2003)
Music By: Nick Hexum
Lyrics By: Nick Hexum
Tabbed By: Steven Lysomirski
Tabbed: 9:10 PM February 7th 2008
Email: steveo3242391@yahoo.com

~ Fade Out
h Hammer
p Pull Off
/ Slide Up
Slide DOwn

Intro/Riff 1: (0:00-0:30)


e-----------------------------------------------------|
B-----------------------------------------------------|
G-----4------4------4------4------4------4------4-----|
D--2----2-2----2-2----2-2----2-0----0-0----0-0----0-0-|
A-----------------------------------------------------|
E-----------------------------------------------------|
e----------------------------------------------------------------|
B----------------------------------------------------------------|
G--4------4------4------4------4---------------------------------|
D----0------0------0------0------0----0------0------0------0-----|
A------3------3------3------3-----------4------4------4------4---|
E----------------------------------2------2------2------1------0-|x2

Chords/Riff 2: (0:30-1:00)


e--0--2--0--2--1-|
B--0--3--1--2--1-|
G--0--2--0--3--2-|
D--2--0--2--4--3-|
A--2-----3--4--3-|
E--0--------2--1-|x2

Guitar 1 Riff 3: (1:00-1:30)


e--0--2--0--2--1-|
B--0--3--1--2--1-|
G--0--2--0--3--2-|
D--2--0--2--4--3-|
A--2-----3--4--3-|
E--0--------2--1-|x2

Riff 4: (This Part Is Not A Guitar, Riffs 3 And 5 Are. But Here Are The Tabs For It Anyway.)


e--------12-------12-------12-------12-------12----|
B--15-15----15-15----15-15----15-15----15-15----15-|
G--------------------------------------------------|
D--------------------------------------------------|
A--------------------------------------------------|
E--------------------------------------------------|
e--12-14---12-14---12-14---12-14---12-14---12-14---12-14---12-14-|
B--12-12---12-12---12-12---12-12---12-12---12-12---12-12---12-12-|
G----------------------------------------------------------------|
D----------------------------------------------------------------|
A----------------------------------------------------------------|
E----------------------------------------------------------------|
e--12-15---12-15---12-15---12-15---12-15---12-15---12-15---12-15-|
B--12-12---12-12---12-12---12-12---12-12---12-12---12-12---12-12-|
G----------------------------------------------------------------|
D----------------------------------------------------------------|
A----------------------------------------------------------------|
E----------------------------------------------------------------|
e--12-14---12-14---12-14---12-14---12-14---12-14---12-14---12-14---12-14---12-14-|
B--11-11---11-11---11-11---11-12---11-11---11-11---11-11---11-11---11-11---11-11-|
G--------------------------------------------------------------------------------|
D--------------------------------------------------------------------------------|
A--------------------------------------------------------------------------------|
E--------------------------------------------------------------------------------|
e--12-14---12-14---12-14-|
B--12-12---12-12---12-12-|
G------------------------|
D------------------------|
A------------------------|
E------------------------|x2

Guitar 2/Riff 5:


e--------------------------------------------------|
B--------------------------------------------------|
G--------------------------------------------------|
D--------------------------------------------------|
A------------------------5-7-5---5-5-5---5-5---5-5-|
E--0-0---0-0---0-0---5-7-------7-------------------|
e--------------------------------------------------------------------------|
B--------------------------------------------------------------------------|
G--------------------------------------------------------------------------|
D--------------------------------------------------------------------------|
A------5-7-5---3-3-3---3-3---3-3---3-3---3-3-3-3---1----1----1----1----1---|
E--5-7-------7---------------------------------------2----2----2----1----0-|
e--------------------------------------------|
B--------------------------------------------|
G--------------------------------------------|
D--------------------------------------------|
A------------------5-7-5---5-5-5---5-5---5-5-|
E--0-0---0-0---5-7-------7-------------------|
e---------------------------------------------------------------------|
B---------------------------------------------------------------------|
G---------------------------------------------------------------------|
D---------------------------------------------------------------------|
A------5-7-5---3-3-3---3-3---3-3---3-3---3-3-3-3---1----1----1----1---|
E--5-7-------7---------------------------------------2----2----2----1-|

Chords 2/Riff 6: (1:30-2:00)


e--0--2--0--2--2--0--2--2--2-|
B--0--3--2--2--3--2--2--3--2-|
G--0--2--2--3--4--2--3--4--3-|
D--2--0--2--4--4--2--4--4--4-|
A--2-----0--4--2--0--4--2--4-|
E--0--------2--------2-----2-|

Guitar 1/Riff 7: (2:00-2:22)


e----0--------0--------0-----0-------|
B------3--------3--------2-----2-----|
G--5-----5--3-----3--2-----2-----2-0-|
D------------------------------------|
A------------------------------------|
E------------------------------------|x6

Riff 8: (2:22-3:14)


e----------------------------------|
B------0-------0-------0-------0---|
G----0---0---0---0---6---6---6---6-|
D--3-------5-------7-------7-------|
A----------------------------------|
E----------------------------------|x11

On the 12th time:


e---------------------------------------------------------------------|
B------0-------0-------0-------0-------0-------0-------0-------0------|
G----0---0---0---0---6---6---6---6---6---6---6---6---6---6---6---6----|
D--3-------5-------7-------7-------7-------7-------7-------7-------7~-|
A---------------------------------------------------------------------|
E---------------------------------------------------------------------|

Riff 9:


e--9-10-9-7--------------------------|
B-----------8/10---------------------|
G----------------9-------------------|
D--------------------9-7-6-------6---|
A---------------------------7/9------|
E------------------------------------|
e------5-7-9--9/109--12--3-3-3-3h5-|
B--5-7------------------------------|
G-----------------------------------|
D-----------------------------------|
A-----------------------------------|
E-----------------------------------|
e--12-10--10-9-------|
B---------------8/10-|
G--------------------|
D--------------------|
A--------------------|
E--------------------|
e-------------------------------------------7~-|
B-------------------------------------------5~-|
G--9/12--7/9--9/12--7/9--12/9--7/9--12/9-------|
D----------------------------------------------|
A----------------------------------------------|
E----------------------------------------------|

Riff 10: (3:14-3:38)


e----------------------------------------------|
B----------------------------------------------|
G----------------------------------------------|
D------0h2---0h2---0h2-------0h2---0h2---0h2---|
A--3-3-----3-----3-----3-----------------------|
E------------------------1-1-----1-----1-----1-|x4

Chords 3/Riff 11: (3:26-3:49)
e–0–1-|
B–1–1-|
G–0–2-|
D–2–3-|
A–3–3-|


E-----1-|

Solo/Riff 12: (3:38-3:49) (Guitar 2 Plays Chords 3/Riff 11 Over This.)


e-------------------------------------------------------------------------------|
B---------------------------------------------------------17-17-15--13h15-17-17-|
G--12/14/17-17-14--17-17-14-17-17-14--12--12/14-17-17-14-----------------------|
D-------------------------------------------------------------------------------|
A-------------------------------------------------------------------------------|
E-------------------------------------------------------------------------------|
e----------------------------17-15-15-------------12-15-14-13-12-----|
B------------------17--17-15--------------------13----------------13-|
G--12/14/17-17-14------------------------12/14------------------------|
D---------------------------------------------------------------------|
A---------------------------------------------------------------------|
E---------------------------------------------------------------------|

Guitar 1/Riff 13: (3:49-4:24)


e-------------------------------------------|
B--5-5--5--5---5--5---5---6-6-6-6---6-6---6-|
G--5-5--5--5---5--5---5---5-5-5-5---5-5---5-|
D--5-5--5--5---5--5---5---3-3-3-3---3-3---3-|
A--3-3--3--3---3--3---3---3-3-3-3---3-3---3-|
E-------------------------------------------|
e--------------------------------------------|
B--5--5--5--5---5--5---5---6-6-6-6---6-6---6-|
G--5--5--5--5---5--5---5---5-5-5-5---5-5---5-|
D--5--5--5--5---5--5---5---3-3-3-3---3-3---3-|
A--3--3--3--3---3--3---3---3-3-3-3---3-3---3-|
E--------------------------------------------|
e--------------------------------------------|
B--5--5--5--5---5--5---5---6-6-6-6x---6-6xx6-|
G--5--5--5--5---5--5---5---5-5-5-5x---5-5xx5-|
D--5--5--5--5---5--5---5---3-3-3-3x---3-3xx3-|
A--3--3--3--3---3--3---3---3-3-3-3x---3-3xx3-|
E--------------------------------------------|

Guitar 2/Riff 14:


e-------------------------------------------|
B-------------------------------------------|
G-------------------------------------------|
D--2-2--2--2---2--2---2---3-3-3-3---3-3---3-|
A--3-3--3--3---3--3---3---3-3-3-3---3-3---3-|
E-------------------------------------------|
e--------------------------------------------|
B--------------------------------------------|
G--------------------------------------------|
D--2--2--2--2---2--2---2---3-3-3-3---3-3---3-|
A--3--3--3--3---3--3---3---3-3-3-3---3-3---3-|
E--------------------------------------------|x4
e--------------------------------------------|
B--------------------------------------------|
G--------------------------------------------|
D--2--2--2--2---2--2---2---3-3-3-3x---3-3xx3-|
A--3--3--3--3---3--3---3---3-3-3-3x---3-3xx3-|
E--------------------------------------------|

Guitar 1/Chords 4/Riff 15: (4:24-4:47)
e–0–1-|
B–1–1-|
G–0–2-|
D–2–3-|
A–3–3-|


E-----1-|

Guitar 2/Riff 16: (Sync These With The Chords Above) (With Distortion)


e---------|
B--5--6---|
G--5--5---|
D--5--5---|
A--3--3---|
E---------|

For Guitar 1 (Let It Fade Out)
e–0~-
B–1~-
G–0~-
D–2~-
A–3~-
[E—–]

For Guitar 2 (Let It Fade Out)
e—–
B–5~-
G–5~-
D–5~-
A–3~-
[E—–]

(This is a great ending. And yes, it is correct.)

Part 1 (5:21-6:21)


e---------------------------------------|
B-------1------1------------------------|
G-----------------------0----0h2p0----0-|
D----2------0---------2---2---------2---|
A--3------2------0~---------------------|
E---------------------------------------|
e------------------------------|
B-------1------1---------------|
G-----------------------0----2-|
D----2------0---------2---2----|
A--3------2------0~------------|
E------------------------------|x2

Part 2


e------------------------------------------------------------------|
B-------1----3----1-------1-0--------------------------------------|
G------------------------------2-0-------------2-0-----------------|
D----2-----------------------------2-2/3-----------3-0-2-3-3-3-2-2-|
A--3------3-----3-----3-3-----------------2/3----------------------|
E------------------------------------------------------------------|
e----------------------------------------------------------------------|
B-----------1----3----1-------1-0--------------------------------------|
G----------------------------------2-0-------------2-0-----------------|
D--------2-----------------------------2-2/3-----------3-0-2-3-3-3-2-2-|
A--0-2-3------3-----3-----3-3-----------------2/3----------------------|
E----------------------------------------------------------------------|

Part 1


e-------------------------------------------|
B-----------1------1------------------------|
G---------------------------0----0h2p0----0-|
D--------2------0---------2---2---------2---|
A--0-2-3------2------0~---------------------|
E-------------------------------------------|
e------------------------------|
B-------1------1---------------|
G-----------------------0----2-|
D----2------0---------2---2----|
A--3------2------0~------------|
E------------------------------|x2

Part 2


e------------------------------------------------------------------|
B-------1----3----1-------1-0--------------------------------------|
G------------------------------2-0-------------2-0-----------------|
D----2-----------------------------2-2/3-----------3-0-2-3-3-3-2-2-|
A--3------3-----3-----3-3-----------------2/3----------------------|
E------------------------------------------------------------------|
e----------------------------------------------------------------------|
B-----------1----3----1-------1-0--------------------------------------|
G----------------------------------2-0-------------2-0-----------------|
D--------2-----------------------------2-2/3-----------3-0-2-3-3-3-2-2-|
A--0-2-3------3-----3-----3-3-----------------2/3----------------------|
E----------------------------------------------------------------------|

Part 3


e-------------------------|
B-----------1-------1-----|
G-------------------------|
D--------2-------0--------|
A--0-2-3-------2-------0~-|
E-------------------------|
e--------------------------------------|
B-------1-------1----------------------|
G----------------------2-0-------------|
D----2-------0-------------2-2/3-3-3-3-|
A--3-------2-------0~------------------|
E--------------------------------------|
e---------------------|
B-------1-------1-----|
G---------------------|
D----2-------0--------|
A--3-------2-------0~-|
E---------------------|
e-----------------------|
B--1-------0~-----------|
G------0~---------------|
D-----------------------|
A--3---3---3~-----------|
E-----------------------|

Lyrics:

Sometimes jacks rule the realm,
Can’t you tell,
The swimmers drown,
Without a sound.
A chalkboard scratching sound,
Could craze the town,
An emperor’s clothes,
Never be exposed.

I took it as a compliment,
Regardless what they meant,
It could have been innocent,
Spent, so spent.
Railing against undeserved,
Dangling precipitants,
Raining down idiots,
Always flapping in the,
Flapping in the wind.

I took it as a compliment
No matter what they meant
Could have been belligerent
Could have been half percent
Could have been wanting
Afraid to be caught promising,
Ended up taunting me.

I can’t change that,
I can’t change,
I can’t change that,
I can’t change.

I’m watching you,
Not sure what’s true,
Life can be so cruel,
There’s nothing you can do,
But it fades…
Only to return,
I feel your eyes burn,
I really am concerned.

Sometimes jacks will rule the realm,
Sometimes jealousy will dwell,
You can’t begin to dispel,
When you can not even tell.

What makes me act the way I do,
And why am I asking you,
What makes me act the way I do,
And why am I asking you,
What makes me act the way I do,
And why am I asking you.

Sometimes jacks will rule the realm,
Sometimes jealousy will dwell,
You can’t begin to dispel,
When you can not even tell,
Sometimes jacks will rule the realm,
Sometimes jealousy will dwell,
You can’t begin to dispel,
When you can not even tell.

To play the most songs, including Sometimes Jacks Rule the Realm / [Coda] by 311 by ukulele, the most important basic ukulele chords to learn are C chord, D chord, G chord, and Em chord.
These set you up to play a ton of songs, and each of them is easy to learn.

Gravatar Image
Like to play Ukulele and Sudoku Game

Leave a Reply

Your email address will not be published. Required fields are marked *