Sorrow by Sevendust Ukulele Chords

Posted on

If you are looking for Sorrow ukulele chords, you have come to the right place.
You can play versatile instrument Sorrow using ukulele or guitar.
This song by Sevendust can also be played by that instruments.
=

Sorrow chords has rhythm and included in Chapter VII: Hope & Sorrow (2008) album.
You can also find another musical style, including jazz ukulele chords, country music ukulele chords, pop ukulele chords, world music ukulele chords, and rock ukulele chords here.

Sorrow by Sevendust Ukulele Chords


-------------------------------------------------------------------------------

“Sorrow” by Sevendust
From the album “Chapter VII: Hope & Sorrow”


-------------------------------------------------------------------------------

Listen to the song for strumming patterns

Standard tuning

Chords used:

[Dsus2/F#]


e|-2----1----3-----0------0----0----x----x----x----x----x-----0-----2----2-|
B|-3----2----0-----3------0----2----x----x----x----x----x-----0-----2----3-|
G|-4----3----0-----2------1----2----x----6----7----9----4-----2-----2----2-|
D|-4----3----0-----0------2----2----4----6----7----9----4-----2-----4----0-|
A|-2----1----2-----0------2----0----4----4----5----7----2-----0-----4----0-|
E|-2----1----3-----2------0----0----2----4----5----7----2-----0-----4----x-|

Intro: Bm – Bbm (x8)

Verse 1:

I’m the only [Dsus2/F#]one that sings the same old song

I know my destiny was made [Dsus2/F#]long ago, I’ve yet to make a change

It’s time to rearrange

Chorus 1:

I understand it seems I’m the last to notice

How anybody feels, is it really ’cause I


E G x2 Bm - Bbm (x4)

Feel I’m the one that’s owed it, am I wrong? am I wrong?

Verse 2:

You look at me the [Dsus2/F#]same, still I feel the blame

I was shifting myself, removing all the[Dsus2/F#] punishment for never being wrong

I feel life is too long

Chorus 2:

I understand it seems I’m the last to notice

How anybody feels, is it really ’cause I


E G x2 Bm - Bbm (x4)

Feel I’m the one that’s owed it, am I wrong? am I wrong?

Bridge:

All my pride leaves me vacant

For the sorrow I’m to blame

But I know if I could just let go, I could find a better way

Only

Am I the only one?

Who thinks and breathes, what no one sees, I’m the only one

Chorus 3:

I understand it seems I’m the last to notice

How anybody feels, is it really ’cause I

Feel I’m the one that’s owed it, am I wrong? am I wrong?

E G F#5 (x4)
Give me just a chance, I notice what I’ve done, what I’ve done

To play the this songs, including Sorrow by Sevendust by ukulele, the most crucial basic ukulele chords to learn are C chord, D chord, G chord, and Em chord.
These set you up to play a a lot of songs, and each of them is easy to master.

Gravatar Image
Like to play Ukulele and Sudoku Game

Leave a Reply

Your email address will not be published. Required fields are marked *