Sorry by Gary Allan Ukulele Chords

Posted on

If you are looking for Sorry ukulele chords, you already visit to the best place.
You can play versatile instrument Sorry using ukulele or guitar.
This song by Gary Allan can also be played by that instruments.
=

Sorry chords has rhythm and included in Smoke Rings in the Dark (1999) album.
You can also get another musical genres, including jazz ukulele chords, country music ukulele chords, pop ukulele chords, world music ukulele chords, and rock ukulele chords here.

Sorry by Gary Allan Ukulele Chords

SORRY (Shawn Camp, Brice Long, Wynn Varble)
performed by Gary Allan on SMOKE RINGS IN THE DARK (1999)

INTRO
|Bbm Ab |F F7 |Bbm Ab |Gb F | x2

Well I came home from work in the middle of the day
Two hours early, but a little too late
She was coming down the stairs, looking mighty grand
With a big brown suitcase in her hand

I said, “What’s goin’ on baby, what’s the deal”
She said, “I just don’t feel like I used to feel”
With the devil’s own smile right out of the blue
She said, “I done went and found myself somebody new”

She said, ”Sorry it didn’t work out
Sorry, I guess I’ll see you around”
She ruined my life, left me broken hearted
And all she had to say was “Sorry”

Well I laid awake cryin’ for many a night
I just couldn’t seem to get her off my mind
I went to her, got down on my knees
Said, “Baby won’t you please come back to me”

She said, “Sorry it didn’t work out
Sorry, Yes I’ll see you around”
She ruined my life, left me broken hearted
And all she had to say was “Sorry”

Well, time went by and my poor heart healed
I found me a woman who’s love is real
Man she’s a looker, the apple of my eye
And every head turns when she walks by

Well, we ran into my old flame the other day
It blew my mind what she had to say
She said, “Hello, baby, well how have you been
I was hopin’ maybe we could get together again

And I said, “Sorry it didn’t work out
Sorry, Yes I’ll see you around”
She ruined my life, left me broken hearted
And all you had to say was “Sorry”

GUITAR FILLS (CD 1:03, 1:40, 2:43)
triplet eighths

__ __ __ __
| | | | | | | | | | | |


|-----------4------------|-----------5------------|------------------------|
|--------6---------------|--------6---------------|------------------------|
|-----6------------------|-----5------------------|------------------------|
|------------------------|------------------------|------------------------|
|------------------------|------------------------|------------------------|
|------------------------|------------------------|------------------------|

GUITAR 1 SOLO (CD 1:47)
__ __ __ __ __ __ __ __ __
| | | | | | | | | | | | | | | | | | | | |


|------------------------|------------------------|------------------------|
|------------------------|------------------------|--6--------4------------|
|------------------------|------------------------|-----6-----------5------|
|------------------------|-----------1------------|--------8-----------6--4|
|--1--1--3--4----31--1---|--0--0--3---------------|------------------------|
|-----------------P------|------------------------|------------------------|

PEDAL STEEL
__ __ __ __
| | | | | | | | | | | | | | | |


|------------------------|------------------------|------------------------|
|--2--------1------------|------------------------|------------------------|
|-----3-----2-------98--6|------------------------|--------------------6---|
|--------4--3--------S---|--8---------------------|-----------------8------|
|------------------------|------------------------|------------------------|
|------------------------|------------------------|------------------------|

(Well time went by and my poor heart healed I

_____ ___ _____ _____
| | | | | | | | | | | | | | | | | | |


|------------------------|----------------------------|--------------------|
|--------9---------------|---------9------9----9------|--------------------|
|--8(10)-----------------|-------8(10)--8(10)-(10)8--6|-8--6---------------|
|----B-------------------|---------B------B----R------|-------8------------|
|------------------------|----------------------------|--------------------|
|------------------------|----------------------------|--------------------|

found me a woman whose love is real Man she’s a looker

__
| | | | | | | | | | | | |


|--------------------9---|------------------------|------------------------|
|-----------------9------|--6-----------------1---|-10---------------------|
|------------8(10)-------|------------------------|------------------------|
|-------------B----------|------------------------|------------------------|
|------------------------|------------------------|------------------------|
|------------------------|------------------------|------------------------|

the apple of my eye and every head turns when she walks by)

CAPO CHART
fret: 0 1



To play the this songs, including Sorry by Gary Allan by ukulele, the most important basic ukulele chords to learn are C chord, D chord, G chord, and Em chord.
These set you up to play a many of songs, and each of them is easy to learn.

Leave a Reply

Your email address will not be published.