Soulstorm by Patrice Ukulele Chords

Posted on

If you are searching for Soulstorm ukulele chords, you’ve visit to the right place.
You can play versatile instrument Soulstorm using ukulele or guitar.
This song by Patrice can also be played by that instruments.
=

Soulstorm chords has rhythm and included in Other Songs album.
You can also get other musical genres, including jazz ukulele chords, country music ukulele chords, pop ukulele chords, world music ukulele chords, and rock ukulele chords here.

Soulstorm by Patrice Ukulele Chords


Patrice ? Soulstorm
tabbed by: gonza
gserradasduarte@hotmail.com


e|-----5----------5----------3--------|
b|-----5----------6----------3--------|
g|-----5----------7----------4--------|
D|-----7----------7----------5--------|
A|-----7----------5----------5--------|
E|-----5---------------------3--------|

Intro : Am…


|-----------------8---7--------------7------------|
|-----10-----10-----------10----8---------10------|
|--9------9---------------------------------------| [ 2x ]
|-------------------------------------------------| /
|-------------------------------------------------| /
|-------------------------------------------------|/

Now we?re walking down an alley
No I?m talking spiritually
We got one eye on the future
And the other on our money

And all our feeling goes dead
When we switch on that channel
So over fed with the terrible flannel
Try to switch off my head
Use my soul instead
So I’ll get ahead of these things I said

[ Chorus ] :

There’s a soul
Soul
A soulstorm everywhere
It’s a everywhere
Everywhere
A soulstorm everywhere

I was taught that talk is cheap
And I have learned that love is deep
God gave me my soul to keep
So I talk love a whole big heap

And I will not point a finger
For it is timeless and will linger
I keep my own words down so I won’t drown
Repeat one more time and don’t hinder

[ Chorus x2 ]

Some people might be wondering
Is his head in the clouds and no ground under him
What the so and so’s he on about
So I’ll just break it down down (no doubt)

Am…


|-10---8--------------10----8-------------|
|---------12---10----------------13---12--|
|-----------------------------------------|
|-----------------------------------------|
|-----------------------------------------|
|-----------------------------------------|

Am…


|-10---8-------------10----8----12----10----|
|---------12---10---------------------------|
|-------------------------------------------|
|-------------------------------------------|
|-------------------------------------------|
|-------------------------------------------|

[ Play this last solo along whit this next part ]

I got up out of bed one misty morning
Found myself sitting there and brainstorming
About how to be true without being corny
Do some soulstorming
Must be the benefit of the global warming
I realised that there ain’t no harm in
Planting soul and a little farming
Do some soul farming
[ Play this part along whit intro solo ]
Soul

[ Chorus x4 ]

gonza..
plz rate and comment

To play the this songs, including Soulstorm by Patrice by ukulele, the most crucial basic ukulele chords to learn are C chord, D chord, G chord, and Em chord.
These set you up to play a many of songs, and each of them is easy to master.

Leave a Reply

Your email address will not be published.