Southern Dreaming by The Sheepdogs Ukulele Chords

Posted on

If you are searching for Southern Dreaming ukulele chords, you already visit to the best place.
You can play versatile instrument Southern Dreaming using ukulele or guitar.
This song by The Sheepdogs can also be played by that instruments.
=

Southern Dreaming chords has rhythm and included in Learn & Burn (2010) album.
You can also get another musical style, including jazz ukulele chords, country music ukulele chords, pop ukulele chords, world music ukulele chords, and rock ukulele chords here.

Southern Dreaming by The Sheepdogs Ukulele Chords


-------------------------------------------------------------------------------

Southern Dreaming – The Sheepdogs


-------------------------------------------------------------------------------

Intro x4


e|-----------------------------------------------------------------------------|
B|-----------------------------------------------------------------------------|
G|-----14--14p11-14p11--------------------11--14-------------------------------|
D|-----------------------14p11----11h14----------------------------------------|
A|-----------------------------------------------------------------------------|
E|-----------------------------------------------------------------------------|

then


e|-----------------------------------------------------------------------------|
B|-----------------------------------------------------12b--12--10--10---------|
G|--11-----9-9----------------------------------9--11--------------------------|
D|-------------9-11-9---7-7---7-----------9s11---------------------------------|
A|---------------------------9---9-----7---------------------------------------|
E|-----------------------------------------------------------------------------|
e|---------------------------------------------------------------------------------|
B|---------------------------------------------------------------------------------|
G|--9-11-9-------------------------------------------------------------------------|
D|-------------11-11-9-11-9---9-7---7-9-7---7---9s11--9---7------------------------|
A|---------------------------------9-------9---------------------------------------|
E|---------------------------------------------------------------------------------|

intro again x3
then


e|----------------------------------------------------------2--0---0--------------|
B|----------------------------------------------------------3--1---2--------------|
G|-----14--14p11-14p11--------------------11--14---11-------2--0---2--------------|
D|-----------------------14p11----11h14---------------------0--2---2--------------|
A|-------------------------------------------------------------3---0--------------|
E|--------------------------------------------------------------------------------|

I’ve looked on down, now baby it looks nice
You don’t have to tell me more than once or twice
I’ve kept all the things, you found my walking shoes
I found out a way to rig it so I can’t lose

Now I said darling
Would you keep on pushing
Would you keep on writing
All your numbers down
But I can’t leave town
No, I guess I’ll spend my days
Southern dreaming

I fight through this haze, baby
Fight through the malaise
I’ll live down there til my dying days
I see when I sleep, baby, through my dreams
That I’ve read in the pages of books and magazines

Now I said darling
Would you keep on pushing
Would you keep on writing
All your numbers down
But I can’t leave town
No, I guess I’ll spend my days
Southern dreaming

Solo


e|-----------------------------------------------------------------------------|
B|-----------------------------------------------------------------------------|
G|-s11--14--11---14---16b---14--11--14---11------------------------------------|
D|-------------------------------------------------4---7--4--7--9b--7--4--7----|
A|---------------------------------------------4s7-----------------------------|
E|-----------------------------------------------------------------------------|
e|-----------------------------------------------------------------------------|
B|-----------------------------------------------15---15-15--------------------|
G|-s11-14--11-14--16--16b--14--11-14--11--11s13----16------16-14-16-14b-12-----|
D|-----------------------------------------------------------------------------|
A|-----------------------------------------------------------------------------|
E|-----------------------------------------------------------------------------|

End on A

To play the most songs, including Southern Dreaming by The Sheepdogs by ukulele, the most important basic ukulele chords to learn are C chord, D chord, G chord, and Em chord.
These set you up to play a many of songs, and each of them is easy to master.

Gravatar Image
Like to play Ukulele and Sudoku Game

Leave a Reply

Your email address will not be published. Required fields are marked *