Speak for Me by Cat Power Ukulele Chords

Posted on

If you are searching for Speak for Me ukulele chords, you’ve visit to the right site.
You can play versatile instrument Speak for Me using ukulele or guitar.
This song by Cat Power can also be played by that instruments.
=

Speak for Me chords has rhythm and included in album.
You can also get other musical genres, including jazz ukulele chords, country music ukulele chords, pop ukulele chords, world music ukulele chords, and rock ukulele chords here.

Speak for Me by Cat Power Ukulele Chords


---------------------------------------------------------------------------

Speak For Me – Cat Power


---------------------------------------------------------------------------

Tuning: standard EBGDAe

This is the tab of Speak for me from the album You Are Free by Cat Power.
It’s a pretty simple song, just listen the song for the rythm.

If you have remarks you can contact me at fancygwen@hotmail.com

Intro


e|-------------------------------------------------------------|
B|-------------------------------------------------------------|
G|-------------------------------------------------------------|
D|--7--7--7--7---5--5--5--5------------------------------------| x4
A|--7--7--7--7---5--5--5?-5------------------------------------|
E|--5--5?-5?-5---3--3?-3--3------------------------------------|

Verse 1


e|-------------------------------------------------------------|
B|-------------------------------------------------------------|
G|-------------------------------------------------------------|
D|--7--7--7--7---5--5--5--5------------------------------------| x12
A|--7--7--7--7---5--5--5?-5------------------------------------|
E|--5--5?-5?-5---3--3?-3--3------------------------------------|

Pick us up we?re all by ourselves
The great big howling is about to begin
A thousand miles after from where it all begins

Pre-Chorus


e|-------------------------------------------------------------|
B|-------------------------------------------------------------|
G|----------------------------7--7--7--7---5--5--5?-5----------|
D|--7--7--7--7---5--5--5--5---7--7--7--7---5--5--5?-5----------| x5
A|--7--7--7--7---5--5--5?-5---5--5?-5?-5---3--3?-3--3----------|
E|--5--5?-5?-5---3--3?-3--3------------------------------------|

Old world, the whole world is

Going on and on (forfeit the shape to fit)
The backhand to a touch is moving on again (forfeit the shape to fit)
Going on and on (forfeit the shape to fit)

Chorus


e|-------------------------------------------------------------|
B|-------------------------------------------------------------|
G|----------------------------7--7--7--7---5--5--5?-5----------|
D|--7--7--7--7---5--5--5--5---7--7--7--7---5--5--5?-5----------| x3
A|--7--7--7--7---5--5--5?-5---5--5?-5?-5---3--3?-3--3----------|
E|--5--5?-5?-5---3--3?-3--3------------------------------------|

What?s next? I?m out of time
Losing my touch I can’t feel
Speak for me, do you see the same signs
Do you know how to read between the lines
All in all, it’s all or none
All for one,


e|-------------------------------------------------------------|
B|-------------------------------------------------------------|
G|--5--5--5?-5-------------------------------------------------|
D|--5--5--5?-5-------------------------------------------------|
A|--3--3?-3--3-------------------------------------------------|
E|-------------------------------------------------------------|

What you want

Pre-Verse


e|-------------------------------------------------------------|
B|-------------------------------------------------------------|
G|-------------------------------------------------------------|
D|--7--7--7--7---5--5--5--5------------------------------------| x2
A|--7--7--7--7---5--5--5?-5------------------------------------|
E|--5--5?-5?-5---3--3?-3--3------------------------------------|

Verse 2


e|-------------------------------------------------------------|
B|-------------------------------------------------------------|
G|-------------------------------------------------------------|
D|--7--7--7--7---5--5--5--5------------------------------------| x12
A|--7--7--7--7---5--5--5?-5------------------------------------|
E|--5--5?-5?-5---3--3?-3--3------------------------------------|

Pick us out of a line up
Stranded and strange just as innocent as kids
The found are leaving and they’re trying to forget.

Pre-Chorus


e|-------------------------------------------------------------|
B|-------------------------------------------------------------|
G|----------------------------7--7--7--7---5--5--5?-5----------|
D|--7--7--7--7---5--5--5--5---7--7--7--7---5--5--5?-5----------| x5
A|--7--7--7--7---5--5--5?-5---5--5?-5?-5---3--3?-3--3----------|
E|--5--5?-5?-5---3--3?-3--3------------------------------------|

The old world, the whole world is

Going on and on (forfeit the shape to fit)
A backhand to the touch is moving on again (forfeit the shape to fit)
Going on and on (forfeit the shape to fit)

Chorus


e|-------------------------------------------------------------|
B|-------------------------------------------------------------|
G|----------------------------7--7--7--7---5--5--5?-5----------|
D|--7--7--7--7---5--5--5--5---7--7--7--7---5--5--5?-5----------| x3
A|--7--7--7--7---5--5--5?-5---5--5?-5?-5---3--3?-3--3----------|
E|--5--5?-5?-5---3--3?-3--3------------------------------------|

What?s next, I?m out of time
Losing my touch I can’t feel
Speak for me; do you see the same signs
Do you know how to read between the lines
All in all, it’s all or none, all for one.


e|--------------3-3-3-3-3-3-4----------------------------------|
B|-------------------------------------------------------------|
G|--5--5--5?-5-------------------------------------------------|
D|--5--5--5?-5-------------------------------------------------|
A|--3--3?-3--3-------------------------------------------------|
E|-------------------------------------------------------------|

What you want


e|-------------------------------------------------------------|
B|-------------------------------------------------------------|
G|-------------------------------------------------------------|
D|--7--7--7--7---5--5--5--5------------------------------------| x4
A|--7--7--7--7---5--5--5?-5------------------------------------|
E|--5--5?-5?-5---3--3?-3--3------------------------------------|

Going on and on

To play the this songs, including Speak for Me by Cat Power by ukulele, the most crucial basic ukulele chords to learn are C chord, D chord, G chord, and Em chord.
These set you up to play a a lot of songs, and each of them is easy to master.

Leave a Reply

Your email address will not be published.