Speechless by Steven Curtis Chapman Ukulele Chords

Posted on

If you are searching for Speechless ukulele chords, you already visit to the best place.
You can play versatile instrument Speechless using ukulele or guitar.
This song by Steven Curtis Chapman can also be played by that instruments.
=

Speechless chords has rhythm and included in Speechless (1999) album.
You can also get other musical style, including jazz ukulele chords, country music ukulele chords, pop ukulele chords, world music ukulele chords, and rock ukulele chords here.

Speechless by Steven Curtis Chapman Ukulele Chords

Song: Speechless
CD: Speechless
c1999
Tabbed by: Daniel Brent (dbs_17@hotmail.com)
This tab is of a live promo performance he gave of this song for the 700
Club. It’s extremely similar to the album version except he left out the
intro and outro. For this rendition, his acoustic was tuned down a half
step (Eb-Ab-Db-Gb-Bb-Eb) but to play along with the cd, you must tune down
a full step (D-G-C-F-A-D).
For simplicity, all chords and tabulation will be shown as if in standard
tuning.
Tuning: D-G-C-F-A-d (down full step)
Chords:(not correct names but close enough)
B4- x24400 Emaj7- 079800 D6- x57700
C#m2(a)- x46600 E5- 079900
C#m2(b)- 9×9800 F#m4- 202200
A2- x02200 G#m6- 4×4400
Riff A:

d---0----0-----0----------0-----0-----0-------0----0------0-----0-------
A---0----0-----0----------0-----0-----0-------0----0------0-----0-------
F--13---13----13---------11----11----11-------8----8------9-----9-------
C--14---14----14---------13----13----13-------9----9-----11----11-------
G---0----0-----0----------0-----0-----0-------0----0------0-----0-------
D-----------------------------------------------------------------------

Riff B:


d---0-----0------0------0-----0-----0-----
A---0-----0------0------0-----0-----0-----
F---6-----8------9-----11-----9-----8-----
C---7-----9-----11-----13----11-----9-----
G---0-----0------0------0-----0-----0-----
D-----------------------------------------

Riff C:


d---0----0----0---------0-----0-----0--- ---0-----0-----0---
A---0----0----0---------0-----0-----0--- ---0-----0-----0---
F---9----4----2---------6-----8-----9--- --11-----9-----8---
C---9----4----2---------7-----9----11--- --13----11-----9---
G---7----2----0---------0-----0-----0--- ---0-----0-----0---
D---0----0----0------------------------- -------------------

Intro:
Riff A x4 Riff B x4 Riff C X2

Verse 1:


[C#m2(a)]

[C#m2(a)]

[C#m2(a)]
[C#m2(a)]
Chorus:

[C#m2(a)]

[C#m2(b)]

[C#m2(a)]
Riff C


[C#m2-C#m-C#m2-C#m]

[D6-C#m2(a)]

[F#m4-G#m6-A2-B4-A2]

[G#m6-A2-B4-C#m2(a)-B4-A2]
Chorus

To play the most songs, including Speechless by Steven Curtis Chapman by ukulele, the most important basic ukulele chords to learn are C chord, D chord, G chord, and Em chord.
These set you up to play a many of songs, and each of them is easy to learn.

Leave a Reply

Your email address will not be published.