Station Approach by Elbow Ukulele Chords

Posted on

If you are looking for Station Approach ukulele chords, you’ve come to the best site.
You can play versatile instrument Station Approach using ukulele or guitar.
This song by Elbow can also be played by that instruments.
=

Station Approach chords has rhythm and included in Leaders of the Free World (2005) album.
You can also find other musical style, including jazz ukulele chords, country music ukulele chords, pop ukulele chords, world music ukulele chords, and rock ukulele chords here.

Station Approach by Elbow Ukulele Chords

ELBOW – STATION APPROACH

Listen to the song for the timing of the changes from the 2 riffs
also towards the end of the song between the G’s & C’s you can add the
occasional F to make it sound more like the song (it’s actually a piano).
Again listen to the song and you’ll know what i mean.

G (355433) or (320003)
C (x35553) or (x32010)


intro: G|--------0---0---0---0---0---0---0---0---0---0-|
D|-----0----------------------------------------| (riff1)
A|-0h3------3---3---5---5---5---5---5---5---5---|
E|----------------------------------------------|
G|-------0---0---0---0---0---0---0---0---0---0-|
D|-0h2h3---3---3---5---5---5---5---5---5---5---| (riff2)
A|---------------------------------------------|
E|---------------------------------------------|

()


G|--------0---0---0---0---0---0---0---0---0---0-|
D|-----0----------------------------------------|
A|-0h3------3---3---5---5---5---5---5---5---5---|
E|----------------------------------------------|

(played continuously throughout)

() riff2 riff1
lyrics: i haven’t been myself of late, i haven’t slept for several days
riff2 riff1
but coming home i feel like i designed these buildings i walk by
riff2 riff1
you know you drive me up the wall, i need to see your face that’s all
riff2 riff1
you little sod i love your eyes, be everything to me tonight
riff2 riff1
be everything to me tonight


G|-------0---0---0---0---0---0---0---0-|
D|-0h2h3---3---3---5---5---5---5---5---|
A|-------------------------------------|
E|-------------------------------------|

()


G|--------0---0---0---0---0---0---0---0---0---0-|
D|----------------------------------------------|
A|-----0----3---3---5---5---5---5---5---5---5---|
E|-0h3------------------------------------------|

() riff2
i never know what i want but i know when i’m low that i
riff1
i need to be in the town where they know what i’m like and don’t mind
riff2
i never know what i want but i know when i’m low that i
riff1
i need to be in the town where they know what i’m like and don’t mind
riff2
i never know what i want but i know when i’m low that i
riff1
i need to be in the town where they know what i’m like and don’t mind
riff2
i never know what i want but i know when i’m low that i
riff1
i need to be in the town where they know what i’m like and don’t mind
riff2
i never know what i want but i know when i’m low that i
riff1
i need to be in the town where they know what i’m like and don’t mind
riff2
i never know what i want but i know when i’m low that i
riff1
i need to be in the town where they know what i’m like and don’t mind
i never know what i want…
the streets are full of goths and greeks
i haven’t seem my mum for weeks
but coming home i feel like i designed the buildings i walk by
you know you drive me up the wall, i need to see your face is all
you little sod i love your eyes, be everything to me toni-ight
be everything to me toni-ight
be everything to me toni-ight

-rigs-

To play the most songs, including Station Approach by Elbow by ukulele, the most crucial basic ukulele chords to learn are C chord, D chord, G chord, and Em chord.
These set you up to play a a lot of songs, and each of them is easy to master.

Leave a Reply

Your email address will not be published.