Steam Will Rise by Silverchair Ukulele Chords

Posted on

If you are searching for Steam Will Rise ukulele chords, you have come to the right site.
You can play versatile instrument Steam Will Rise using ukulele or guitar.
This song by Silverchair can also be played by that instruments.
=

Steam Will Rise chords has rhythm and included in Neon Ballroom (1999) album.
You can also get other musical style, including jazz ukulele chords, country music ukulele chords, pop ukulele chords, world music ukulele chords, and rock ukulele chords here.

Steam Will Rise by Silverchair Ukulele Chords


Song-Steam Will Rise
Band-silverchair
Album-Neon Ballroom

Transcribed by Denis Bourdon (denbourdon@aol.com)
http://members.aol.com/denbourdon/silverbsides.htm


--------------------------------------------------

Tablature explanation

b : bend
s : slide
h : hammer-on
p : pull-off
x : muffled string
P.M.: palm mute

Standard tuning

[0:00] Bass

[0:12] Guitars in


e|-11-12-11-3-3s5-|-11-12-11-3-3s5---|-11-12-11-3-3s5-|-11-12-11-3-3s5-|
B|----------------|----------------3-|----------------|----------------|
G|----------------|------------------|----------------|----------------|
D|----------------|------------------|----------------|----------------|
A|----------------|------------------|----------------|----------------|
E|----------------|------------------|----------------|----------------|

[0:24] Guitars out
Contain yourself
I will compress what I am to

[0:35]
Am C Fadd5- x2


||--------------------|--------------------||
||--------1-------1---|-----0-------0------||
||----------2-------0-|-------4-------4--o-||
||-o----2-------2-----|------------------o-||
||-o--0-------3-------|---3-------3--------||
||--------------------|-1-------1----------||

Replace yourself
With what you have
Your substitute

[0:47]


|----------------------------|
|-----5-----5---5-----6------|
|----------------------------|
|----------------------------|
|---5-----5---------6--------|
|-3-----3-----3---4-----4--1-|

Only wanted a piece of myself

[0:54]
Am C/G Fadd5- x4


||--------------------|-----0----------||
||--------1-------1---|-----0---0------||
||----------2-------0-|-------4---4--o-||
||-o----2-------2-----|--------------o-||
||-o--0---------------|---3------------||
||------------3-------|-1--------------||

Steam will rise (x4)

[0:12] Bass then guitars in (doubled)


|-11-12-11-3-3s5-|-11-12-11-3-3s5---|-11-12-11-3-3s5-|-11-12-11-3-3s5-|
|----------------|----------------3-|----------------|----------------|
|----------------|------------------|----------------|----------------|
|----------------|------------------|----------------|----------------|
|----------------|------------------|----------------|----------------|
|----------------|------------------|----------------|----------------|

[1:31] Guitars out
Refrain
Confess
Contain
Repress
Pretend I’m dead
Abuse myself
Confuse myself
I won’t be led

[1:54]
G5 G#5 F x2


||----------------------------------------||----------------------------|
||--------5-----5---5-----6--------1------||-----5-----5---5-----6------|
||-o------------------------------------o-||----------------------------|
||-o------------------------------------o-||----------------------------|
||------5-----5---------6--------3--------||---5-----5---------6--------|
||----3-----3-----3---4-----4--1-----1----||-3-----3-----3---4-----4--1-|

Only wanted a piece of myself (x3)

[2:13]
Am C/G Fadd5- x4


||--------------------|-----0----------||
||--------1-------1---|-----0---0------||
||----------2-------0-|-------4---4--o-||
||-o----2-------2-----|--------------o-||
||-o--0---------------|---3------------||
||------------3-------|-1--------------||

Steam will rise (x4)

[2:37]


|----------------------------------|----------------------------------|
|----------------------------------|----------------------------------|
|----------------------------------|----------------------------------|
|-----7-------5-------8---10---8-7-|-----7-------5-------8---10---7-8-|
|---7---7---5---5---8--------------|---7---7---5---5---8--------------|
|-5-------3-------6-----6----6-----|-5-------3-------6-----6----6-----|

[A5-]


|----------------------------------|-------------------|---|---|---|---|
|----------------------------------|-------------------|---|---|---|---|
|----------------------------------|-------------------|---|---|---|---|
|-----7-------5-------8---10---8-7-|-----7-------5---1-|-1-|-1-|-1-|-1-|
|---7---7---5---5---8--------------|---7---7---5---5-0-|-0-|-0-|-0-|-0-|
|-5-------3-------6-----6----6-----|-5-------3---------|---|---|---|---|

[3:22]
Am C/G Fadd5- x4


||--------------------|-----0----------||
||--------1-------1---|-----0---0------||
||----------2-------0-|-------4---4--o-||
||-o----2-------2-----|--------------o-||
||-o--0---------------|---3------------||
||------------3-------|-1--------------||

Steam will rise (x4)

[3:45]


|-11-12-11-3-3s5-|-11-12-11-3-3s5---|-11-12-11-3-3s5-|-11-12-11-3-3s5-|
|----------------|----------------3-|----------------|----------------|
|----------------|------------------|----------------|----------------|
|----------------|------------------|----------------|----------------|
|----------------|------------------|----------------|----------------|
|----------------|------------------|----------------|----------------|

(then chords of A5-)

To play the most songs, including Steam Will Rise by Silverchair by ukulele, the most important basic ukulele chords to learn are C chord, D chord, G chord, and Em chord.
These set you up to play a ton of songs, and each of them is easy to learn.

Leave a Reply

Your email address will not be published.