Storm and Thunder by Earth and Fire Ukulele Chords

Posted on

If you are looking for Storm and Thunder ukulele chords, you have visit to the best site.
You can play versatile instrument Storm and Thunder using ukulele or guitar.
This song by Earth and Fire can also be played by that instruments.
=

Storm and Thunder chords has rhythm and included in Earth & Fire (1995) album.
You can also get another musical style, including jazz ukulele chords, country music ukulele chords, pop ukulele chords, world music ukulele chords, and rock ukulele chords here.

Storm and Thunder by Earth and Fire Ukulele Chords

INTRO (played on an organ) Every arpeggio is played four times
[Fm/D]

e|-------8-------8-------8-------8-|-------9-------------------|
B|-----8-------7-------9-------8---|-----11------1113-----1112-|
G|---8-------8-------10------8-----|---12------13-------13-----|
D|-10------10------12------10------|-13------13-------13-------|
A|---------------------------------|---------------------------|
E|---------------------------------|---------------------------|

VERSE 1
Darkness of the night has gone
A [Fm/D]blackbird sings a song at dawn
Crystal drops of morning dew
Are covering all the grass
The landscape wears its morningdress

VERSE 2
The foliage of the wood shines bright
As [Fm/D]green as emerald’s light
Over the fields vibrating air
Causes a faintly glance
Some cows are grazing near a fence

VERSE 3
While lowering clouds accumalate
[Fm/D]Midges dancing above the lake
The haymakers, they go away
Hiding for a storm
A flash of lightening struck

BREAK

CHORUS (2x)
Storm and thunder
[Fm/D]Beat the nature
Down gushes the rain and
Wind cracks the trees

SOLO
[Fm/D]


e|------------------------------------------------------------------|
B|---------8-------7-----------------------8b------8----------------|
G|-------------------------8-------7--------------------------------|
D|-10------------------------------------------------------10-------|
A|------------------------------------------------------------------|
E|------------------------------------------------------------------|


e|----------------11-------11--------------------------------------------|
B|---------11--11b--13-------------12----12p11-119-9---8----------------|
G|-12--------------------------------------------------------------------|
D|--------------------------------------------------------------10-------|
A|-----------------------------------------------------------------------|
E|-----------------------------------------------------------------------|

[Fm/D]


e|----------------------------------------------------------------------------|
B|---------8-------7810-8h10p87----------------------8b------8----------------|
G|-------------------------------8-------7------------------------------------|
D|-10----------------------------------------------------------------10-------|
A|----------------------------------------------------------------------------|
E|----------------------------------------------------------------------------|


e|----------------11-------11--------------------------------------------|
B|---------11--11b--13-------------12----12p11-119-9---8b---------------|
G|-12--------------------------------------------------------------------|
D|-----------------------------------------------------------------------|
A|-----------------------------------------------------------------------|
E|-----------------------------------------------------------------------|

KEYBOARD SOLO (4:01-4:54)

OUTRO

Keyboard outro riff


e|------------------|
B|------------------|
G|---------3--------|
D|---5-4-5---5-4-5--| 3x
A|------------------|/
E|------------------|

End on Cm

To play the most songs, including Storm and Thunder by Earth and Fire by ukulele, the most crucial basic ukulele chords to learn are C chord, D chord, G chord, and Em chord.
These set you up to play a many of songs, and each of them is easy to master.

Gravatar Image
Like to play Ukulele and Sudoku Game

Leave a Reply

Your email address will not be published. Required fields are marked *