Strange Love by Halsey Ukulele Chords

Posted on

If you are looking for Strange Love ukulele chords, you’ve come to the right site.
You can play versatile instrument Strange Love using ukulele or guitar.
This song by Halsey can also be played by that instruments.
=

Strange Love chords has rhythm and included in Other Songs album.
You can also find another musical style, including jazz ukulele chords, country music ukulele chords, pop ukulele chords, world music ukulele chords, and rock ukulele chords here.

Strange Love by Halsey Ukulele Chords

2 Guitars

[–]
Intro

Guitar 1 and/or 2:


e|---------------------------------------------------------------------------|
B|---------------------------------------------------------------------------|
G|---------------------------------------------------------------------------|
D|---------------------------------------------------------------------------|
A|---------------------------------------------------------------------------|
E|-3-3-3-3-0-0~--------------------------------------------------------------|

Continues through verse 1 to pre-chorus

[–]
Pre-Chorus

Guitar 1 and/or 2: I think this is bass but can be played on guitar as well


e|---------------------------------------------------------------------------|
B|---------------------------------------------------------------------------|
G|---------------------------------------------------------------------------|
D|---------------------------------------------------------------------------|
A|-------6~---(x1)-----------------6~---4~--(x2)-----------------------------|
E|-7~-9~--------------------7~-9~-------------------7~-4~-(slide down)-------|

[–]
Chorus

Guitar 1:


e|---------------------------------------------------------------------------|
B|---------------------------------------------------------------------------|
G|---------------------------------------------------------------------------| x2
D|-6---------9---------4---------6-------------------------------------------|
A|-6-(strum)-9-(strum)-4-(strum)-6-(strum)-----------------------------------|
E|-4---------7---------2---------4-------------------------------------------|

Guitar 2:


e|-7-6-4~------10-9-7~-----7-6~----7-6-4~------------------------------------|
B|---------------------------------------------------------------------------|
G|---------------------------------------------------------------------------|
D|---------------------------------------------------------------------------|
A|---------------------------------------------------------------------------|
E|---------------------------------------------------------------------------|

x2 but second time through


e|-7-6-4~-----10-9-7~------7-6~-----7-4-0~----6~------7-4~-------------------|/ skip the 6~ and 7-4~
B|---------------------------------------------------------------------------|
G|---------------------------------------------------------------------------|
D|---------------------------------------------------------------------------|
A|---------------------------------------------------------------------------|
E|---------------------------------------------------------------------------|

[–]
Verse 2

Guitar 1 and/or 2:


e|---------------------------------------------------------------------------|
B|---------------------------------------------------------------------------|
G|---------------------------------------------------------------------------|
D|---------------------------------------------------------------------------|
A|---------------------------------------------------------------------------|
E|-3-3-3-3-0-0~--------------------------------------------------------------|

Continues through verse 1 to pre-chorus

[–]
Pre-Chorus

Guitar 1 and/or 2:


e|---------------------------------------------------------------------------|
B|---------------------------------------------------------------------------|
G|---------------------------------------------------------------------------|
D|---------------------------------------------------------------------------|
A|-------6~---(x1)-----------------6~---4~--(x2)-----------------------------|
E|-7~-9~--------------------7~-9~-------------------7~-4~-(slide down)-------|

[–]
Chorus

Guitar 1:


e|---------------------------------------------------------------------------|
B|---------------------------------------------------------------------------|
G|---------------------------------------------------------------------------| x2
D|-6---------9---------4---------6-------------------------------------------|
A|-6-(strum)-9-(strum)-4-(strum)-6-(strum)-----------------------------------|
E|-4---------7---------2---------4-------------------------------------------|

Guitar 2:


e|-7-6-4~------10-9-7~-----7-6~----7-6-4~------------------------------------|
B|---------------------------------------------------------------------------|
G|---------------------------------------------------------------------------|
D|---------------------------------------------------------------------------|
A|---------------------------------------------------------------------------|
E|---------------------------------------------------------------------------|

x2 but second time through


e|-7-6-4~-----10-9-7~------7-6~-----7-4-0~----6~------7-4~-------------------|/ skip the 6~ and 7-4~
B|---------------------------------------------------------------------------|
G|---------------------------------------------------------------------------|
D|---------------------------------------------------------------------------|
A|---------------------------------------------------------------------------|
E|---------------------------------------------------------------------------|

[–]
Bridge

Guitar 1: (not 100% sure of this)


e|---------------------------------------------------------------------------|
B|---------------------------------------------------------------------------|
G|-9---------8---------6---------8-------------------------------------------| x2
D|-9-(strum)-8-(strum)-6-(strum)-8-(strum)-----------------------------------|
A|-7---------6---------4---------6-------------------------------------------|
E|---------------------------------------------------------------------------|

Guitar 2:


e|-12-11-9~-----10-9-7~-----7-6-4~-----12-11-9~-----10-9-7~-----7-6-0~-------|
B|---------------------------------------------------------------------------|
G|---------------------------------------------------------------------------|
D|---------------------------------------------------------------------------|
A|---------------------------------------------------------------------------|
E|---------------------------------------------------------------------------|

[–]
Chorus

Guitar 1:


e|---------------------------------------------------------------------------|
B|---------------------------------------------------------------------------|
G|---------------------------------------------------------------------------| x2
D|-6---------9---------4---------6-------------------------------------------|
A|-6-(strum)-9-(strum)-4-(strum)-6-(strum)-----------------------------------|
E|-4---------7---------2---------4-------------------------------------------|

Guitar 2:


e|-7-6-4~------10-9-7~-----7-6~----7-6-4~------------------------------------|
B|---------------------------------------------------------------------------|
G|---------------------------------------------------------------------------|
D|---------------------------------------------------------------------------|
A|---------------------------------------------------------------------------|
E|---------------------------------------------------------------------------|

x2 but second time through


e|-7-6-4~-----10-9-7~------7-6~-----7-4-0~----6~------7-4~-------------------|/ skip the 6~ and 7-4~
B|---------------------------------------------------------------------------|
G|---------------------------------------------------------------------------|
D|---------------------------------------------------------------------------|
A|---------------------------------------------------------------------------|
E|---------------------------------------------------------------------------|

[–]
No outro

To play the most songs, including Strange Love by Halsey by ukulele, the most crucial basic ukulele chords to learn are C chord, D chord, G chord, and Em chord.
These set you up to play a a lot of songs, and each of them is easy to master.

Leave a Reply

Your email address will not be published.