Such a Fool by The Vaselines Ukulele Chords

Posted on

If you are searching for Such a Fool ukulele chords, you have visit to the right place.
You can play versatile instrument Such a Fool using ukulele or guitar.
This song by The Vaselines can also be played by that instruments.
=

Such a Fool chords has rhythm and included in Sex with an X (2010) album.
You can also get another musical style, including jazz ukulele chords, country music ukulele chords, pop ukulele chords, world music ukulele chords, and rock ukulele chords here.

Such a Fool by The Vaselines Ukulele Chords


The Vaselines – Such A Fool

Chorus:
Don’t even know where you’d been,
you were second hand goods I had cleaned.
It wasn’t me it was you,
how come I feel a fool?
Why am I such a fool?


’cause your appetite’s high, be damned when
you try to persuade me to stay.
I won’t take long to drag me down,
need a vaccine to keep you away.

Chorus

Take a look at yourself in your own little world
where you want to be king.
These old wounds of mine are just doing fine
’cause you don’t mean a thing.

Chorus

Solo:


e|--------------------------------|
B|-10--10-8--8-7-7-787------------|
G|--------------------7-9--976-76-|
D|--------------------------------| 2x
A|--------------------------------| /
E|--------------------------------| /


e|-------------------------------|
B|-------------------------------|
G|-7--77--779----7--77--776------| 2x
D|-------------------------------| /
A|-------------------------------| /
E|-------------------------------|


e|-------------------------------|
B|-------------------------------|
G|-7---7---7---7-799-------------|
D|-------------------------------|
A|-------------------------------|
E|-------------------------------|



The mistake I made in your games I played,
the sacrificial lamb.
It was a one man show well I didn’t know,
this addiction would cause so much harm.

Chorus




To play the most songs, including Such a Fool by The Vaselines by ukulele, the most important basic ukulele chords to learn are C chord, D chord, G chord, and Em chord.
These set you up to play a a lot of songs, and each of them is easy to master.

Leave a Reply

Your email address will not be published.