Supervelocidad by Tronic Ukulele Chords

Posted on

If you are searching for Supervelocidad ukulele chords, you already come to the right site.
You can play versatile instrument Supervelocidad using ukulele or guitar.
This song by Tronic can also be played by that instruments.
=

Supervelocidad chords has rhythm and included in Ke patine la risa (2003) album.
You can also find another musical genres, including jazz ukulele chords, country music ukulele chords, pop ukulele chords, world music ukulele chords, and rock ukulele chords here.

Supervelocidad by Tronic Ukulele Chords

[++++++++++++++++++++++++++]| Tronic- Supervelocidad |
[++++++++++++++++++++++++++]

“Pero si tu no la encuentras te matas solo sin darte cuenta…”

Tuning: EADG

Verse
“Supervelocidad…”
1.


G|---------------------------|
D|---------------------------|
A|-5~------------------------|
E|-------------555-5-3333-33-|

“Es como comerse…”
2.


G|------------------------------|
D|------------------------------|
A|-555-5-444-5555---------------|
E|----------------555-5-3333-33-|

“Yo no se lo que tiene…”
3.


G|--------------------------------|
D|----------------7-7-7-7-5-5-5-5-|
A|-555-5-444-5555-----------------|
E|--------------------------------|

“Pero si me la tomo…”
4.


G|-----------------------------|
D|--------------------------5~-|
A|-555-5-444-5555--------------|
E|----------------55x----3~----|

“Wuaa…”
5.


G|---------------4-------------------|
D|--------------5-77777777-5555-4444-|
A|-5555555555555---------------------|--x2
E|-----------------------------------|

“Supervelocidad…”
6.


G|------------------------------|
D|------------------------------|
A|-555-5-444-5555---------------|--x2
E|----------------555-5-3333-33-|

7.


G|--------------------------------|
D|----------------7-7-7-7-5-5-5-5-|
A|-555-5-444-5555-----------------|
E|--------------------------------|

8.


G|-----------------------------|
D|-----------------------------|
A|-555-5-444-5555--------------|
E|----------------55555555-33x-|

Lyrics:

Supervelocidad
La encuentras en la sopa
Es como comersee
Un plato de frutas rojas
Yo no se lo que tiene
Aquella inmensa olla
Pero si me la tomo
No me meten a la fosa

Suervelocidad
Esta escondida en la ampolleta
Pero si tu no la encuentras
Te matas solo sin darte cuenta

[+++++++++++++++++++++++++++++++++]| RaiLeff |
| Underground__Dora@hotmail.com |
[+++++++++++++++++++++++++++++++++]

To play the most songs, including Supervelocidad by Tronic by ukulele, the most crucial basic ukulele chords to learn are C chord, D chord, G chord, and Em chord.
These set you up to play a many of songs, and each of them is easy to learn.

Gravatar Image
Like to play Ukulele and Sudoku Game

Leave a Reply

Your email address will not be published. Required fields are marked *