Sweet Sixteen by Billy Idol Ukulele Chords

Posted on

If you are looking for Sweet Sixteen ukulele chords, you’ve come to the right place.
You can play versatile instrument Sweet Sixteen using ukulele or guitar.
This song by Billy Idol can also be played by that instruments.
=

Sweet Sixteen chords has rhythm and included in Whiplash Smile (1986) album.
You can also get other musical style, including jazz ukulele chords, country music ukulele chords, pop ukulele chords, world music ukulele chords, and rock ukulele chords here.

Sweet Sixteen by Billy Idol Ukulele Chords

Tuning:EADGBE

Intro:
pm pm pm


e|----------0-0-0--------------0-0-0--------------0-0-0-------------0-0-0---3--|
B|----------1-1-1--------------1-1-1--------------1-1-1-------------1-1-1---1--|
G|----------2-2-2--------------2-2-2--------------2-2-2-------------2-2-2---2--|
D|----------2-2-2--------------2-2-2--------------2-2-2-------------2-2-2---2--|
A|--3-2-0---0-0-0----------0---0-0-0--3-3-2-2-0---0-0-0----------0--0-0-0---0--|
E|-----------------0-0-3-3-------------------------------0-0-3-3---------------|


e|-3-3--3--3---0-0--0---0-----------------------------------0-0----0-----------|
B|-1-1--1--1---1-1--0h1-1----1-----1---------3-----3--------1-0h1--1-----------|
G|-2-2--0--0---2-2--2---2-------2-----2---------4----4------2-2----2-----------|
D|-3-3--3--3---2-2--2---2----3----3-----3----5----5-----5---2-2----2-----------|
A|-------------0-0--0---0-----------------------------------0-0----0-----------|
E|-----------------------------------------------------------------------------|

…rocking chair.” “…here”


e|----------------------------------3------------------------------------------|
B|-1-----1---------3-------3--------3------------------------------------------|
G|---2-----2----------4------4------4------------------------------------------|
D|-3---3-----3-----5-----5------5---5------------------------------------------|
A|----------------------------------5------------------------------------------|
E|----------------------------------3------------------------------------------|

[Figure #1]

“I’d do anything for my sweet sixteen”
pm pm pm pm


e|-------------0-0--------------0-0--------------0-0-------------0---0--0------|
B|-------------1-1--------------1-1--------------1-1-------------1---1--1------|
G|-------------2-2--------------2-2--------------2-2-------------2---2--2------|
D|-------------2-2--------------2-2--------------2-2-------------2---2--2------|
A|---------0---0-0--3-3-2-2-0---0-0----------0---0-0--3-3-2-2-0--0---0--0------|
E|-0-0-3-3---------------------------0-0-3-3-----------------------------------|


Gave my heart an engagement ring she left everything
Everything I gave her, oh, sweet sixteen
Built a moon for a rocking chair
I never guessed it could, rock her far from here

Oh, oh, oh, oh

Someone’s built a candy castle
For my sweet sixteen
Someone’s built a candy girl and drew her in

Someone’s built a candy castle
For my sweet sixteen
Someone’s built a candy girl and drew her in

[Figure #1]
I’d do anything for my sweet sixteen

Oh, I’ll do anything for that runaway child

Well, a memory can burn you
Memories grow older as people can
They just get colder, said sweet sixteen

Oh, I see it’s clear, baby
That you are all through here

Oh, oh, oh, oh

Someone’s built a candy castle
For my sweet sixteen
Someone’s took that candy girl and drew her in

Someone’s built a candy castle
For my sweet sixteen
Someone’s took that candy and drew it in

[Figure #1]
I’d do anything for my sweet sixteen

Oh, I’ll do anything for that runaway child

F C G

Get up in the morning, sweat over you
Get up in the morning, sweat over you
Get my leg over, leg over, sweet sixteen

[Figure #1]
Sweet sixteen, that runaway child

Gave my heart an engagement ring she took everything
Everything I gave her, oh, sweet sixteen
Set a moon for a rocking chair

I never guessed it would
Rock her far from here

Oh, oh, oh, oh

Someone’s built a candy castle
For my sweet sixteen
Someone’s built a candy brain and drew her in

Someone’s built a candy castle
For my sweet sixteen
Someone’s built a candy brain and drew her in

[Figure #1]
I’d do anything for my sweet sixteen

To play the this songs, including Sweet Sixteen by Billy Idol by ukulele, the most crucial basic ukulele chords to learn are C chord, D chord, G chord, and Em chord.
These set you up to play a many of songs, and each of them is easy to learn.

Leave a Reply

Your email address will not be published.