Swim Beneath My Skin by Counterparts Ukulele Chords

Posted on

If you are looking for Swim Beneath My Skin ukulele chords, you’ve visit to the right site.
You can play versatile instrument Swim Beneath My Skin using ukulele or guitar.
This song by Counterparts can also be played by that instruments.
=

Swim Beneath My Skin chords has rhythm and included in You’re Not You Anymore (2017) album.
You can also find other musical style, including jazz ukulele chords, country music ukulele chords, pop ukulele chords, world music ukulele chords, and rock ukulele chords here.

Swim Beneath My Skin by Counterparts Ukulele Chords


[Riff 1, Guitar 1 & 2] – [00:00] – [00:02]


- -----------------------------------------------------------------
- -12----------------------8-----------8-----------7---------------
- -0-----------------------0-----------0-----------0---------------
- -9-----------5---5-------5-----------5-----------4---------------
- -10----------5---5-------7-----------7-----------5---------------
- -----0-0-0-0-3---3---0-0-----0-0-0-0-----0-0-0-0-----------------

PM ……. … ……. …….


- -----------------------------------------------------------------
- -8-----------12--12------5-----------5-----------7---------------
- -0-----------0---0-------x-----------x-----------x---------------
- -5-----------9---9-------5-----------5-----------7---------------
- -7-----------10--10------3-----------3-----------5---------------
- -----0-0-0-0---------0-0-----0-0-0-0-----0-0-0-0-----------------

PM ……. … ……. …….

[Riff 2, Guitar 1 & 2] – [00:02] – [00:28]


- -----------------------------------------------------------------
- -12--12--12------------------------------------------------------
- -0---0---0-------------------------------------------------------
- -9---9---9-------------------------------------------------------
- -10--10--10------------------------------------------------------
- -------------0---0---0---0---0-0-0---0---0---0---0---0---0---0---

PM ……………………………………………


- -----------------------------------------------------------------
- -8---8---8-------------------------------------------------------
- -0---0---0-------------------------------------------------------
- -5---5---5-------------------------------------------------------
- -7---7---7-------------------------------------------------------
- -------------0---0---0---0---0-0-0---0---0---0---0---0---0---0---

PM ……………………………………………


- -----------------------------------------------------------------
- -12--12------12--12------10--10----------------------10--10--10--
- -0---0-------0---0-------0---0-----------------------0---0---0---
- -9---9-------9---9-------7---7-----------------------9---9---9---
- -10--10------10--10------9---9-----------------------10--10--10--
- ---------0-----------0-----------0---0---0---0---0---------------

PM . . ……………..


- -----------------------------------------------------------------
- -8---8-------8---8-------7---7-----------------------7---7---7---
- -0---0-------0---0-------x---x-----------------------x---x---x---
- -5---5-------5---5-------7---7-----------------------7---7---7---
- -7---7-------7---7-------5---5-----------------------5---5---5---
- ---------0-----------0-----------0---0---0---0---0---------------

PM . . ……………..


- -----------------------------------------------------------------
- -12--12--12------------------------------------------------------
- -0---0---0-------------------------------------------------------
- -9---9---9-------------------------------------------------------
- -10--10--10------------------------------------------------------
- -------------0---0---0---0---0---0-0-0---0---0---0---0---0---0---

PM ……………………………………………


- -----------------------------------------------------------------
- -8---8---8-------------------------------------------------------
- -0---0---0-------------------------------------------------------
- -5---5---5-------------------------------------------------------
- -7---7---7-------------------------------------------------------
- -------------0---0---0---0---0---0-0-0---0---0---0---0---0---0---

PM ……………………………………………


- -----------------------------------------------------------------
- -------------10--------------------------------------------------
- -----------------11------------------4-----------4--h5-----------
- -----------------------------------------------------------------
- ---------------------------------------------------------0---0---
- -0--h7--h8-----------8---0--h5---5-------5---5-------------------

PM . ….. …..


- -----------------------------------------------------------------
- -------------7---------------------------------------------------
- -----------------7-----------------------------------------------
- -------------------------------------5-----------5---7-----------
- ---------------------------------------------------------0---0---
- -0--h7--h8-----------8---0--h5---5-------5---5-------------------

PM . ….. …..


- -----------------------------------------------------------------
- -12--12--12------------------12--12--12--------------------------
- -0---0---0-------------------0---0---0---------------------------
- -9---9---9-------------------9---9---9---------------------------
- -10--10--10------------------10--10--10--------------------------
- -------------0---0---0---0---------------0---0---0---0---0---0---

PM …………. …………………


- -----------------------------------------------------------------
- -8---8---8-------------------8---8---8---------------------------
- -0---0---0-------------------0---0---0---------------------------
- -5---5---5-------------------5---5---5---------------------------
- -7---7---7-------------------7---7---7---------------------------
- -------------0---0---0---0---------------0---0---0---0---0---0---

PM …………. …………………


- -----------------------------------------------------------------
- -12--12------12--12------10--10----------------------10--10--10--
- -0---0-------0---0-------0---0-----------------------0---0---0---
- -9---9-------9---9-------7---7-----------------------9---9---9---
- -10--10------10--10------9---9-----------------------10--10--10--
- ---------0-----------0-----------0---0---0---0---0---------------

PM . . ……………..


- -----------------------------------------------------------------
- -8---8-------8---8-------7---7-----------------------7---7---7---
- -0---0-------0---0-------x---x-----------------------x---x---x---
- -5---5-------5---5-------7---7-----------------------7---7---7---
- -7---7-------7---7-------5---5-----------------------5---5---5---
- ---------0-----------0-----------0---0---0---0---0---------------

PM . . ……………..


- -----------------------------------------------------------------
- -12--12--12------------------------------------------------------
- -0---0---0-------------------------------------------------------
- -9---9---9-------------------------------------------------------
- -10--10--10------------------------------------------------------
- -------------0---0---0---0---0---0-0-0---0---0---0---0---0---0---

PM ……………………………………………


- -----------------------------------------------------------------
- -8---8---8-------------------------------------------------------
- -0---0---0-------------------------------------------------------
- -5---5---5-------------------------------------------------------
- -7---7---7-------------------------------------------------------
- -------------0---0---0---0---0---0-0-0---0---0---0---0---0---0---

PM ……………………………………………


- -----------------------------------------------------------------
- -------------12----------------------10--------------10----------
- ---------0-------0---------------0-------0---------------0-------
- ---------------------9-----------------------7-------------------
- -0--h10------------------0--h9-------------------9-----------9---
- -----------------------------------------------------------------

[-]


- -----------------------------------------------------------------
- -------------8-----------------------7---------------7-----------
- ---------0-------0---------------0-------0---------------0-------
- ---------------------5------------------------4------------------
- -0--h7-------------------0--h5-------------------5-----------5---
- -----------------------------------------------------------------
- -------------------------------------------------------------------------------------------------
- -------------10----------------------10----------------------------------------------------------
- -----------------11----------------------11------------------4-----------4--h5-------------------
- -------------------------0---0---0---------------------------------------------------------------
- -------------------------9---9---9---------------------------------------------------------------
- -0--h7--h8---------------8---8---8---------------0---5---5-------5---5---------------------------

. …..


- -------------------------------------------------------------------------------------------------
- -------------7-----------------------7--------------------------------------------------------
- -----------------7-----------------------7----------------------------------------------------
- -------------------------0---0---0---------------------------5-----------5--h7-------------------
- -------------------------9---9---9---------------------------------------------------------------
- -0--h7--h8---------------8---8---8---------------0---5---5-------5---5---------------------------

. …..

[Riff 4, Guitar 1 & 2] – [00:28] – [00:47]


- -------------------------------------------------------------------------------------------------
- -------------------------------------------------------------------------------------------------
- -16--16--16------16------16--16--16------16------14--14--14------14------------------14--14--14--
- -x---x---x-------x-------x---x---x-------x-------x---x---x-------x-------------------x---x---x---
- -14--14--14------14------14--14--14------14------12--12--12------12------------------12--12--12--
- -0---0---0-------0-------0---0---0-------0-------0---0---0-------0-------0---0---0---0---0---0---

PM ………


- -------------------------------------------------------------------------------------------------
- -------------------------------------------------------------------------------------8---8---8---
- -11--11--11------11------11--11--11------11------11--11--11------11------------------11--11--11--
- -9---9---9-------9-------9---9---9-------9-------9---9---9-------9-------------------------------
- -10--10--10------10------10--10--10------10------10--10--10------10------------------------------
- -0---0---0-------0-------0---0---0-------0-------0---0---0-------0-------0---0---0---------------

PM ………


- -------------------------------------------------------------------------------------------------
- -------------------------------------------------------------10----------------------------------
- -16--16--16------16------16--16--16------16----------------------11------------------------------
- -x---x---x-------x-------x---x---x-------x---------------------------------------x---x-x-x-------
- -14--14--14------14------14--14--14------14--------------------------------------x---x-x-x-------
- -0---0---0-------0-------0---0---0-------0-------0--h7--h8-----------8---0--h5---x---x-x-x---0---

PM .


- -------------------------------------------------------------------------------------------------
- -------------------------------------------------------------7--------------------------------
- -11--11--11------11------11--11--11------11----------------------7----------------------------
- -9---9---9-------9-------9---9---9-------9-------------------------------------------------------
- -10--10--10------10------10--10--10------10------------------------------------------------------
- -0---0---0-------0-------0---0---0-------0-------0--h7--h8-----------8---0--h5-------------------
- -------------------------------------------------------------------------------------------------
- -------------------------------------------------------------------------------------12----------
- -16--16--16------16------16--16--16------16------14--14--14------14----------------------14--12--
- -x---x---x-------x-------x---x---x-------x-------x---x---x-------x-------------------------------
- -14--14--14------14------14--14--14------14------12--12--12------12------------------------------
- -0---0---0-------0-------0---0---0-------0-------0---0---0-------0-------0---0---0---------------

PM ………


- -------------------------------------------------------------------------------------------------
- -------------------------------------------------------------------------------------8-----------
- -11--11--11------11------11--11--11------11------11--11--11------11----------------------11------
- -9---9---9-------9-------9---9---9-------9-------9---9---9-------9---------------------------9---
- -10--10--10------10------10--10--10------10------10--10--10------10------------------------------
- -0---0---0-------0-------0---0---0-------0-------0---0---0-------0-------0---0---0---------------

PM ………


- -------------------------------------------------------------------------------------------------
- -------------------------------------------------------------12----------10----------10----------
- -16--16--16------16------16--16--16------16--------------0-------0-------0-----------0-----------
- -x---x---x-------x-------x---x---x-------x---------------------------9---7-----------7-----------
- -14--14--14------14------14--14--14------14------0--h10------------------9-----------9-----------
- -0---0---0-------0-------0---0---0-------0-----------------------------------0-0-0-------0---0---

PM ….. …..


- -------------------------------------------------------------------------------------------------
- -------------------------------------------------------------12----------5-----------7-----------
- -11--11--11------11------11--11--11------11--------------0-------0-------x-----------x-----------
- -9---9---9-------9-------9---9---9-------9---------------------------9---5-----------7-----------
- -10--10--10------10------10--10--10------10------0--h10------------------3-----------5-----------
- -0---0---0-------0-------0---0---0-------0-----------------------------------0-0-0-------0---0---

PM ….. …..


- -----------------------------------------------------------------
- -----------------------------------------------------------------
- -----------------------------------------------------------------
- -9-----------------------12----------------------9-------7-------
- -7-----------------------10----------------------7-------5-------
- -7-----------------------10----------------------7---0-0-5-------

PM …


- -----------------------------------------------------------------
- -8-----------------------12----------------------8-------7-------
- -0-----------------------0-----------------------0-------0-------
- -5-----------------------9-----------------------5-------4-------
- -7-----------------------10----------------------7-------5-------
- -----------------------------------------------------0-0---------

PM …

[Riff 5, Guitar 1 & 2] – [00:47] – [01:08]


- -----------------------------------------------------------------
- -----------------------------------------------------------------
- -----------------------------------------------------------------
- -5---5-------5-------5-------5---5---5-------5-------5-------5---
- -3---3-------3-------3-------3---3---3-------3-------3-------3---
- -3---3-------3-------3-------3---3---3-------3-------3-------3---

[-]


- -----------------------------------------------------------------
- -----------------------------------------------------------------
- -7---7-------7-------7-------7---7---7-------7-------7-------7---
- -5---5-------5-------5-------5---5---5-------5-------5-------5---
- -3---3-------3-------3-------3---3---3-------3-------3-------3---
- -----------------------------------------------------------------
- -----------------------------------------------------------------
- -------------------------------------8-----------7-----------7---
- -----------------------------------------0-----------0-----------
- -5---5-------5-------5-------------------------------------------
- -3---3-------3-------3-------7-7-7-----------5-----------5-------
- -3---3-------3-------3-------------------------------------------

PM ….. . .


- -----------------------------------------------------------------
- -------------------------------------8-----------7-----------7---
- -7---7-------7-------7-------------------0-----------0-----------
- -5---5-------5-------5-------------------------------------------
- -3---3-------3-------3-------7-7-7-----------5-----------5-------
- -----------------------------------------------------------------

PM ….. . .


- -----------------------------------------------------------------
- -----------------------------------------------------------------
- -----------------------------------------------------------------
- -5---5-------5-------5-------5---5---5-------5-------5-------5---
- -3---3-------3-------3-------3---3---3-------3-------3-------3---
- -3---3-------3-------3-------3---3---3-------3-------3-------3---

[-]


- -----------------------------------------------------------------
- -----------------------------------------------------------------
- -7---7-------7-------7-------7---7---7-------7-------7-------7---
- -5---5-------5-------5-------5---5---5-------5-------5-------5---
- -3---3-------3-------3-------3---3---3-------3-------3-------3---
- -----------------------------------------------------------------
- -----------------------------------------------------------------
- -----------------------------------------------------------------
- -----------------------------------------------------------------
- -5---5-------5-------5-------5---9-----------12----------7-------
- -5---5-------5-------5-------5---7-----------10----------5-------
- -3---3-------3-------3-------3---7---0-0-0-0-10--0-0-0-0-5---0-0-

PM ……. ……. …


- -----------------------------------------------------------------
- -12--12------12------12------12--8-----------12----------7-------
- -0---0-------0-------0-------0---0-----------0-----------0-------
- -9---9-------9-------9-------9---5-----------9-----------4-------
- ---------------------------------7-----------10----------5-------
- -------------------------------------0-0-0-0-----0-0-0-0-----0-0-

PM ……. ……. …


- -----------------------------------------------------------------
- -12--12------12------12------12--12--12------12------12------12--
- -0---0-------0-------0-------0---0---0-------0-------0-------0---
- -9---9-------9-------9-------9---9---9-------9-------9-------9---
- -----------------------------------------------------------------
- -----------------------------------------------------------------

[-]


- -----------------------------------------------------------------
- -----------------------------------------------------------------
- -7---7-------7-------7-------7---7---7-------7-------7-------7---
- -5---5-------5-------5-------5---5---5-------5-------5-------5---
- -3---3-------3-------3-------3---3---3-------3-------3-------3---
- -----------------------------------------------------------------
- -----------------------------------------------------------------
- -10--10------10------10--------------12----------13----------10--
- -0---0-------0-------0-------------------0-----------0-----------
- -7---7-------7-------7-------------------------------------------
- ----------------------------10-10-10---------10----------10------
- -----------------------------------------------------------------

PM …….. . .


- -----------------------------------------------------------------
- -------------------------------------8-----------7-----------7---
- -7---7-------7-------7-------------------0-----------0-----------
- -5---5-------5-------5-------------------------------------------
- -3---3-------3-------3-------7-7-7-----------5-----------5-------
- -----------------------------------------------------------------

PM ….. . .


- -----------------------------------------------------------------
- -----12--12--12------12------12--12--12------12------12--12------
- -----0---0---0-------0-------0---0---0-------0-------0---0-------
- -----9---9---9-------9-------9---9---9-------9-------9---9-------
- -10--------------------------------------------------------------
- -------------------------------------------------------------0-0-

PM .. …


- -----------------------------------------------------------------
- -----------------------------------------------------------------
- -----7---7---7-------7-------7---7---7-------7-------7---7-------
- -----5---5---5-------5-------5---5---5-------5-------5---5-------
- -5---3---3---3-------3-------3---3---3-------3-------3---3-------
- -------------------------------------------------------------0-0-

PM . …


- -----------------------------------------------------------------
- -----------------------------------------------------------------
- -----------------------------------------------------------------
- -7---7---7---7-----------12--12--12--12----------7---7-----------
- -5---5---5---5-----------10--10--10--10----------5---5-----------
- -5---5---5---5-------0-0-10--10--10--10------0-0-5---5-----------

PM … …


- -----------------------------------------------------------------
- -------------------------12--12--12--12----------7---7-----------
- -9---9---9---9-----------0---0---0---0-----------0---0-----------
- -7---7---7---7-----------9---9---9---9-----------4---4-----------
- -5---5---5---5-----------10--10--10--10----------5---5-----------
- ---------------------0-0---------------------0-0-----------------

PM … …

[Riff 2, Guitar 1 & 2] – [01:08] – [01:34]

[Riff 6a, Guitar 1 & 2] – [01:34] – [01:50]


- -------------------------------------------------------------------------------------------------
- -------------------------------------------------------------------------------------------------
- -16--16--16------16------16--16--16------16------14--14--14------14------------------14--14--14--
- -x---x---x-------x-------x---x---x-------x-------x---x---x-------x-------------------x---x---x---
- -14--14--14------14------14--14--14------14------12--12--12------12------------------12--12--12--
- -0---0---0-------0-------0---0---0-------0-------0---0---0-------0-------0---0---0---0---0---0---

PM ………


- -------------------------------------------------------------------------------------------------
- -------------------------------------------------------------------------------------8---8---8---
- -11--11--11------11------11--11--11------11------11--11--11------11------------------11--11--11--
- -9---9---9-------9-------9---9---9-------9-------9---9---9-------9-------------------------------
- -10--10--10------10------10--10--10------10------10--10--10------10------------------------------
- -0---0---0-------0-------0---0---0-------0-------0---0---0-------0-------0---0---0---------------

PM ………


- -------------------------------------------------------------------------------------------------
- -------------------------------------------------------------10----------------------------------
- -16--16--16------16------16--16--16------16----------------------11------------------------------
- -x---x---x-------x-------x---x---x-------x---------------------------------------x---x-x-x-------
- -14--14--14------14------14--14--14------14--------------------------------------x---x-x-x-------
- -0---0---0-------0-------0---0---0-------0-------0--h7--h8-----------8---0--h5---x---x-x-x---0---

PM .


- -------------------------------------------------------------------------------------------------
- -------------------------------------------------------------7--------------------------------
- -11--11--11------11------11--11--11------11----------------------7----------------------------
- -9---9---9-------9-------9---9---9-------9-------------------------------------------------------
- -10--10--10------10------10--10--10------10------------------------------------------------------
- -0---0---0-------0-------0---0---0-------0-------0--h7--h8-----------8---0--h5-------------------
- -------------------------------------------------------------------------------------------------
- -------------------------------------------------------------------------------------12----------
- -16--16--16------16------16--16--16------16------14--14--14------14----------------------14--12--
- -x---x---x-------x-------x---x---x-------x-------x---x---x-------x-------------------------------
- -14--14--14------14------14--14--14------14------12--12--12------12------------------------------
- -0---0---0-------0-------0---0---0-------0-------0---0---0-------0-------0---0---0---------------

PM ………


- -------------------------------------------------------------------------------------------------
- -------------------------------------------------------------------------------------8-----------
- -11--11--11------11------11--11--11------11------11--11--11------11----------------------11------
- -9---9---9-------9-------9---9---9-------9-------9---9---9-------9---------------------------9---
- -10--10--10------10------10--10--10------10------10--10--10------10------------------------------
- -0---0---0-------0-------0---0---0-------0-------0---0---0-------0-------0---0---0---------------

PM ………


- -------------------------------------------------------------------------------------------------
- -------------------------------------------------------------------------------------------------
- -16--16--16------16------16--16--16------16------------------5-----------------------------------
- -x---x---x-------x-------x---x---x-------x-------------------------------9-------5---------------
- -14--14--14------14------14--14--14------14--------------7-------7-----------7---5-------5-------
- -0---0---0-------0-------0---0---0-------0-------0---5---------------5-----------3-------2-------

PM ……… . .


- -------------------------------------------------------------------------------------------------
- -------------------------------------------------------------------------------------------------
- -11--11--11------11------11--11--11------11------------------5-----------------------------------
- -9---9---9-------9-------9---9---9-------9-------------------------------9-------5---------------
- -10--10--10------10------10--10--10------10--------------7-------7-----------7---5-------5-------
- -0---0---0-------0-------0---0---0-------0-------0---5---------------5-----------3-------2-------

PM ……… . .

[Riff 6b] – [01:34] – [01:50]


- -------------------------------------------------------------------------------------------------
- -------------------------------------------------------------
- -------------------------------------------------------------
- -------------------------------------------------------------------------------------------------
- -------------------------------------------------------------------------------------------------
- -------------------------------------------------------------------------------------------------
- -------------------------------------------------------------------------------------------------
- -------------------------------------------------------------
- -------------------------------------------------------------
- -------------------------------------------------------------------------------------------------
- -------------------------------------------------------------------------------------------------
- -------------------------------------------------------------------------------------------------

[Riff 7, Guitar 1 & 2] – [01:50] – [02:09]


- ---------------------------------------------------------------------------------
- -5---------------------------------------5---------------------------------------
- -4---------------------------------------4---------------------------------------
- -2---------------------------------------2---------------------------------------
- -2---------------------------------------2---------------------------------------
- -0---------------------------------------0---------------------------------------

[-]


- -------7~------------------------------------------------------------------------
- -10~-----------------------------------
- ---------------------------------------
- ---------------------------------------------------------------------------------
- ---------------------------------------------------------------------------------
- ---------------------------------------------------------------------------------
- -5---------------------------------------5-5---5-5-------------------------555---5---3---
- -4---------------------------------------4-4---4-4-------------------------444---4---2---
- -2---------------------------------------2-2---2-2-------------------------222---2---2---
- -2---------------------------------------3-3---3-3---3-3-3-3-3-3-3-3-3-3-3-333-3-3-3-3---
- -0---------------------------------------------------0-0-0-0-0-0-0-0-0-0-0-----0---0-----

PM ………………… . .


- -----------------------------------------------------------------------------------------
- -----------5-5---5-5-------------------------555---5---3---
- -----------4-4---4-4-------------------------444---4---2---
- -----------------------------------------2-2---2-2-------------------------222---2---2---
- -----------------------------------------3-3---3-3-----------------------3-333-3-3-3-3---
- -------------------------------------------------------------------------0-----0---0-----

PM ………………… . .

[Riff 8] – [02:09] – [02:24]


- -----------------------------------------------------------------
- -5-------------------------------------------------555-----333---
- -4-------------------------------------------------444-----222---
- -2-------------------------------------------------222-----222---
- -3-3---3-3---3-----3-----3---3-3-3---3---3-3---3-3-333-3-3-333-3-
- ---0---0-0---0-----0-----0---0-0-0---0---0-0---0-0-----0-0-----0-

PM ……………………………………….. … .


- ---------------------------------------------------------------
- -5-------------------------------------------------555---3-----
- -4-------------------------------------------------444---2-----
- -2-------------------------------------------------222---2-----
- -3-3---3-3---3-----3-----3---3-3-3---3---3-3---3-3-333-3-3-----
- ---0---0-0---0-----0-----0---0-0-0---0---0-0---0-0-----0-------

PM ……………………………………….. .

[Riff 9a, Guitar 1 & 2] – [02:24] – [02:54]


- -------------------------------------------------------------------------------------------------
- -3-3-3---3---3-3-3---3---3-3-3---3---------------3-3-3---3---3-3-3---3---3-3-3-------1-1-1-------
- -4-4-4---4---4-4-4---4---4-4-4---4---------------4-4-4---4---4-4-4---4---4-4-4-------4-4-4-------
- -2-2-2---2---2-2-2---2---2-2-2---2---2-----------2-2-2---2---2-2-2---2---2-2-2-------2-2-2-------
- -3-3-3---3---3-3-3---3---3-3-3---3---2-222-2-2-2-3-3-3---3---3-3-3---3---3-3-3-3-3-3-3-3-3-3-3-3-
- -0-0-0---0---0-0-0---0---0-0-0---0---0-000-0-0-0-0-0-0---0---0-0-0---0---0-0-0-0-0-0-0-0-0-0-0-0-

PM ……… ….. …..


- -------------------------------------------------------------------------------------------------
- -3-3-3---3---3-3-3---3---3-3-3---3---------------3-3-3---3---3-3-3---3---3-3-3-------1-1-1-------
- -4-4-4---4---4-4-4---4---4-4-4---4---------------4-4-4---4---4-4-4---4---4-4-4-------4-4-4-------
- -2-2-2---2---2-2-2---2---2-2-2---2---------------2-2-2---2---2-2-2---2---2-2-2-------2-2-2-------
- -3-3-3---3---3-3-3---3---3-3-3---3---------------3-3-3---3---3-3-3---3---3-3-3-------3-3-3-------
- -0-0-0---0---0-0-0---0---0-0-0---0---------------0-0-0---0---0-0-0---0---0-0-0-------0-0-0-------
- -------------------------------------------------------------------------------------------------
- -3-3-3---3---3-3-3---3---3-3-3---3---0-----------------------------------------------------------
- -4-4-4---4---4-4-4---4---4-4-4---4---4-----------------------------------------------------------
- -2-2-2---2---2-2-2---2---2-2-2---2---2-----------------------------------------------------------
- -3-3-3---3---3-3-3---3---3-3-3---3---3-----------3-3-3---3---3-3-3---3---3-3-3-------------------
- -0-0-0---0---0-0-0---0---0-0-0---0---0-----------0-0-0---0---0-0-0---0---0-0-0-------------------

PM ………………………………………..


- -------------------------------------------------------------------------------------------------
- -3-3-3---3---3-3-3---3---3-3-3---3---------------------------------------------------------------
- -4-4-4---4---4-4-4---4---4-4-4---4---------------------------------------------------------------
- -2-2-2---2---2-2-2---2---2-2-2---2---------------------------------------------------------------
- -3-3-3---3---3-3-3---3---3-3-3---3---------------3-3-3---3---3-3-3---3---3-3-3-------------------
- -0-0-0---0---0-0-0---0---0-0-0---0---------------0-0-0---0---0-0-0---0---0-0-0-------------------

PM ………………………………………..

[Riff 9b] – [02:23] – [02:42]


- ---------19----------b-----------r-----------15----17----
- -17------------------------------------------------------
- ---------------------------------------------------------
- ---------------------------------------------------------
- ---------------------------------------------------------
- ---------------------------------------------------------

AP ……………………………………………….


- -------------------------------------------------
- -19----------17----------17b---------r-----------
- -------------------------------------------------
- -------------------------------------------------
- -------------------------------------------------
- -------------------------------------------------

AP ………………………………………..


- -19----------b-----------r-----------------------
- -------------------------------------------------
- -------------------------------------------------
- -------------------------------------------------
- -------------------------------------------------
- -------------------------------------------------

AP ………………………………………..

To play the this songs, including Swim Beneath My Skin by Counterparts by ukulele, the most crucial basic ukulele chords to learn are C chord, D chord, G chord, and Em chord.
These set you up to play a many of songs, and each of them is easy to learn.

Leave a Reply

Your email address will not be published.