Ten More Days by Avicii Ukulele Chords

Posted on

If you are looking for Ten More Days ukulele chords, you already visit to the best site.
You can play versatile instrument Ten More Days using ukulele or guitar.
This song by Avicii can also be played by that instruments.
=

Ten More Days chords has rhythm and included in Stories (2015) album.
You can also find another musical style, including jazz ukulele chords, country music ukulele chords, pop ukulele chords, world music ukulele chords, and rock ukulele chords here.

Ten More Days by Avicii Ukulele Chords

Capo 1

Chords

Am: x02210
D: xx0230 except for one part in the chorus when it is played like this xx0232
F: 133211

Intro


e|-------0-------0------0-------0------0------0------0-------0-|
B|-------1-------1------1-------1------1------1------1-------1-|
G|---0h2------2-------2-----0h2------2------2------2-----0h2---|
D|-------------------------------------------------------------|
A|-0-------0-------0------0-------0------0------0------0-------|
E|-------------------------------------------------------------|

Verses


e|------0------0------0------0-|------0------0------0------0-|
B|------1------1------1------1-|------3------3------3------3-|
G|----2------2------2------2---|----2------2------2------2---|
D|-----------------------------|-0------0------0------0------|
A|-0------0------0------0------|-----------------------------|
E|-----------------------------|-----------------------------|
e|-----------------------------|------0------0------0-------0-|
B|------1------1------1------1-|------1------1------1-------1-|
G|------2------2------2------2-|----2------2------2-----0h2---|
D|----3------3------3------3---|------------------------------|
A|-----------------------------|-0------0------0------0-------|
E|-1------1------1------1------|------------------------------|

Last chord before the chorus is a bit different, both in timing and which string to do the hammer on to.
Instead of playing that last section of the Am, you play it like this.


e|------0------0-------0------0-|
B|------1------1-------1------1-|
G|----2------2--------------2---|
D|-----------------0h2----------|
A|-0------0------0-------0------|
E|------------------------------|

Chorus


e|------0------0------0------0-|------0------0------0------0-|
B|------1------1------1------1-|------3------3------3------3-|
G|----2------2------2------2---|----2------2------2------2---|
D|-----------------------------|-0------0------0------0------|
A|-0------0------0------0------|-----------------------------|
E|-----------------------------|-----------------------------|
e|-----------------------------|------0------0------0-------0-|
B|------1------1------1------1-|------1------1------1-------1-|
G|------2------2------2------2-|----2------2------2-----0h2---|
D|----3------3------3------3---|------------------------------|
A|-----------------------------|-0------0------0------0-------|
E|-1------1------1------1------|------------------------------|
e|------0------0------0------0-|------2------2------2------2-|
B|------1------1------1------1-|------3------3------3------3-|
G|----2------2------2------2---|----2------2------2------2---|
D|-----------------------------|-0------0------0------0------|
A|-0------0------0------0------|-----------------------------|
E|-----------------------------|-----------------------------|
e|-----------------------------|------0------0------0-------0-|
B|------1------1------1------1-|------1------1------1-------1-|
G|------2------2------2------2-|----2------2------2-----0h2---|
D|----3------3------3------3---|------------------------------|
A|-----------------------------|-0------0------0------0-------|
E|-1------1------1------1------|------------------------------|

Ten more days under water and I already know I’ll be fine
Ten more days til it’s over til the darkness goes and I see the light

I’m torn between fulfilling my wildest dreams to satisfy the beast inside of me
And a grounded love that raises me high above the grabbing hands of cowards and of thieves

Ten more days to find my way
Ten more days til I’m awake
Ten more days til I don’t have to fight
I don’t need a future king
There ain’t a prayer that I could sing
Ten more days and I’m gonna make it right

Am D F Am x2

You see my conscience betrayed me but baby I’m strong enough to take the tides
The bed, it trembles beneath me but wherever the road is rough you know I’ll rise

I’m torn between fulfilling my wildest dreams to satisfy the beast inside of me
And a grounded love that raises me high above the grabbing hands of cowards and of thieves

Ten more days to find my way
Ten more days til I’m awake
Ten more days til I don’t have to fight
I don’t need a future king
There ain’t a prayer that I could sing
Ten more days and I’m gonna make it right

Am D F Am x2

To play the most songs, including Ten More Days by Avicii by ukulele, the most crucial basic ukulele chords to learn are C chord, D chord, G chord, and Em chord.
These set you up to play a ton of songs, and each of them is easy to learn.

Leave a Reply

Your email address will not be published.