Thank You Jesus by Hillsong Live Ukulele Chords

Posted on

If you are looking for Thank You Jesus ukulele chords, you’ve visit to the right place.
You can play versatile instrument Thank You Jesus using ukulele or guitar.
This song by Hillsong Live can also be played by that instruments.
=

Thank You Jesus chords has rhythm and included in No Other Name (Deluxe Edition) [Live] (2014) album.
You can also get other musical genres, including jazz ukulele chords, country music ukulele chords, pop ukulele chords, world music ukulele chords, and rock ukulele chords here.

Thank You Jesus by Hillsong Live Ukulele Chords


Tuning: Standard

Guitar 1:

Verse: (The guitar here plays really lightly to create atmosphere, strumming in 16ths)


e|-------------------------------------------|
B|--5------------9--10-10----------9--7--10--|
G|--2------------9--11-9-----------9--7--9---|
D|-------------------------------------------|
A|-------------------------------------------|
E|-------------------------------------------|

Chorus:


e|--5----------------0--------------|
B|--5----0-----------3---0----------|
G|--7----2-2---------2---2-2--------|
D|--7----2---2-------0---2---2------|
A|--5----0-----5-4-------0-----5-4--|
E|----------------------------------|

Instrumental:

[A/C#]


e|----------------------------------------------------------------------|
B|----------------------------------------------------------------------|
G|----------------------------------------------------------------------|
D|--7-9-9-9-9-7-7-7-7-9-9-9-9-7-----7-9-9-9-9-7-7-7-7-9-9-9/119-7------|
A|------------------------------9-7--------------------------------9-7--|
E|----------------------------------------------------------------------|


e|----------------------------------------------------------------------|
B|----------------------------------------------------------------------|
G|----------------------------------------------------------------------|
D|--7-9-9-9-9-7-7-7-7-9-9-9-9-7-----7-9-9-9-9-7-7-7-7-9-9-9/119-7------|
A|------------------------------9-7--------------------------------9-7--|
E|----------------------------------------------------------------------|

Bridge:

[A/C#]


e|----------------------------------------------------------------------|
B|----------------------------------------------------------------------|
G|----------------------------------------------------------------------|
D|--7-9-9-9-9-7-7-7-7-9-9-9-9-7-----7-9-9-9-9-7-7-7-7-9-9-9/119-7------|
A|------------------------------9-7--------------------------------9-7--|
E|----------------------------------------------------------------------|


e|----------------------------------------------------------------------|
B|----------------------------------------------------10-10-10-10-10----|
G|----------------------------------------------------9--9--9--9--9-----|
D|--7-9-9-9-9-7-7-7-7-9-9-9-9-7-----7-9-9-9-9-7-7-7-7-7--7--7--7--7-----|
A|------------------------------9-7-------------------------------------|
E|----------------------------------------------------------------------|

[A/C#]


e|--5-5-5-5-5-5-5-5------------------------------------------------------|
B|--3-3-3-3-5-5-5-3-5-5-5-5-5--------------------------------------------|
G|--2-2-2-2-2-2-2-2-4-4-4-4-4-2-----2-4-4-4-4-2-2-2-2-4-4-4-4/64-2------|
D|------------------2-2-2-2-2-2-4-2-2-2-2-2-2-2-2-2-2-2-2-2---------4-2--|
A|-----------------------------------------------------------------------|
E|-----------------------------------------------------------------------|


e|--5-5-5-5-5-5-5-5------------------------------------------------------|
B|--3-3-3-3-5-5-5-3-5-5-5-5-5---------------------5-5-5-5-5-5-5-5--------|
G|--2-2-2-2-2-2-2-2-4-4-4-4-4-2-----2-4-4-4-4-2-2-2-2-4-4-4-4-4-2--------|
D|------------------2-2-2-2-2-2-4-2-2-2-2-2-2-2-2-2-2-2-2-2-2-2-2-4-2----|
A|-----------------------------------------------------------------------|
E|-----------------------------------------------------------------------|

[A/C#]


e|--10-10-10-10-10-10-10-10-----------------------------------------5-5-5-4-4-4-5-5--|
B|--10-10-10-10-10-10-10-10-9-9-9-9-9-9-9-9-10-10-10-10-10-10-10-10-5-5-5-5-5-5-5-5--|
G|--7--7--7--7--7--7--7--7--9-9-9-9-9-9-9-9-9--9--9--9--9--9--9--9--2-2-2-2-2-2-2-2--|
D|--7--7--7--7--7--7--7--7--9-9-9-9-9-9-9-9-7--7--7--7--7--7--7--7-------------------|
A|--------------------------7-7-7-7-7-7-7-7-9--9--9--9--9--9--9--9-------------------|
E|-----------------------------------------------------------------------------------|


e|--5-5-5-5-5-5-5-5-------------------------------------|
B|--3-3-3-3-5-5-5-3-5-5-5-5-5-----------------------10--|
G|--2-2-2-2-2-2-2-2-4-4-4-4-4-2-----2-4-4-4-4-2-2-2-9---|
D|------------------2-2-2-2-2-2-4-2-2-2-2-2-2-2-2-2-7---|
A|------------------------------------------------------|
E|------------------------------------------------------|

Guitar 2:

Verse:


e|-------------------------------------------------------------------|
B|-------------------------------------------------------------------|
G|-------------------------------------------------------------------|
D|--7-7-7-7-7-7-7-7-7-7-7-7-7-7-7-7-7-7-7-7-7-7-7-7-7-7-7-7-7-7-7-7--|
A|-------------------------------------------------------------------|
E|-------------------------------------------------------------------|


e|-------------------------|
B|------7--------5---------|
G|----9---9----7---7--7p6--|
D|--9--------7-------------|
A|-------------------------|
E|-------------------------|

Chorus:


e|-------------------------------------------------------|
B|--12--10-----12--10---------12--10-----12--10----------|
G|----------7---------9--7-6----------7----------9--7-6--|
D|-------------------------------------------------------|
A|-------------------------------------------------------|
E|-------------------------------------------------------|

Bridge: (this part is strummed as the bridge builds)

[A/C#]


e|------------------------------------------|
B|------------10----5--------------10----5--|
G|--7----9----11----6----7----9----11----6--|
D|--7----9----11----7----7----9----11----7--|
A|--5----7----9----------5----7----9--------|
E|------------------------------------------|

Chords:

Verse 1:

Grace that flows like a river
Washing over me
Fount of heaven love of Christ
Overflow in me

Chorus:

Thank You Jesus You set me free
Christ my Saviour You rescued me

Verse 2:

Take this life delivered
A vessel of Your love
Wholly now devoted
To see Your Kingdom come

Instrumental: D E F#m A/C# D E F#m A

Bridge:

You’ve given me life
You’ve opened my eyes
I love You Lord
[A/C#] I love You Lord
You’ve entered my heart
You’ve set me apart
I love You Lord
A ( D | E )
I love You Lord

To play the most songs, including Thank You Jesus by Hillsong Live by ukulele, the most crucial basic ukulele chords to learn are C chord, D chord, G chord, and Em chord.
These set you up to play a a lot of songs, and each of them is easy to master.

Leave a Reply

Your email address will not be published.