That Kind of Love by Alison Krauss Ukulele Chords

Posted on

If you are looking for That Kind of Love ukulele chords, you already come to the best place.
You can play versatile instrument That Kind of Love using ukulele or guitar.
This song by Alison Krauss can also be played by that instruments.
=

That Kind of Love chords has rhythm and included in Forget About It (1999) album.
You can also get another musical genres, including jazz ukulele chords, country music ukulele chords, pop ukulele chords, world music ukulele chords, and rock ukulele chords here.

That Kind of Love by Alison Krauss Ukulele Chords


-------------------------------------------------------------------------------

THAT KIND OF LOVE – Alison Krauss


-------------------------------------------------------------------------------

Tabbed by: asd20227
Email: timothy8888 at gmail.com
Capo: 1st
Key: C major
Tuning: Standard

Note: For most part of the verses, the guitar starts immediately after each lyrical line
and stops before the next. It is not shown explicitly below to save space by making the
score compact.


e||--------------------------------------------------------------------------|
B||--------------------------1-0-----0-1-------1---1-----------1-1-----------|
G||-------------------------2-0-------------0-----------------0-0-----0-----|
D||-------------------------3-3-----------------------------2-2-3---3---2---|
A||------------------------3-------3-------3---------------3-------3-------3-|
E||----------------------1-------1-------1-----------------------------------|

1. Who would sell their soul for love Or waste one tear on compromise
2. I can’t help feeling like a fool Since I lost that place inside


e|---------------------------------------------------------------------------|
B|---------------------3---------3-----------------------------1-1-----------|
G|---------------------0-5-----5-4-----------------------------0-0-----0-----|
D|-------------------0-------0-------0-----------------------2-2-3---3---2---|
A|---------------------------------------------------------3-------3-------3-|
E|-----------------3-------5-------7-----------------------------------------|

Should be easy enough To know a heartache in disguise
Where my heart knew its way And my soul was ever wise


e|--------------------------1---5---3----------------------------------------|
B|------------------------3---------------1------------------1---------------|
G|----------------------3---------0---------0--------------0---------0-------|
D|--------------------------------------2------------------------------------|
A|------------------------------------3------------------3-------------------|
E|--------------------3-------3------------------------1---------------------|

But the heart rules the mind And the going gets rough
Once innocence was lost There was not faith enough


e|--------------------------------------------------------------------------||
B|-------1-----0-------3---------3---------------------------1-1------------||
G|-----2---------0-----0-5-----5-4---------------------------0-0-----0-----||
D|-------------------0-------0-------0---------------------2-2-3---3---2---||
A|---3-------3-------------------------------------------3-------3-------3--||
E|-2-------2-------3-------5-------7----------------------------------------||

Pride takes the fall When you find that kind of love
Still my heart held on When it found that kind of love

(Chorus)

Though beauty is rare enough

Still we trust

Somehow we’ll find it there

With no guarantee

It seems to me

At least it should be fair


e|---------------------------------------------------------------------------|
B|---------------------------1-0-----0-1-------1---1-----------1-1-----------|
G|---------------------------2-0-------------0-----------------0-0-----0-----|
D|---------------------------3-3-----------------------------2-2-3---3---2---|
A|-------------------------3-------3-------3---------------3-------3-------3-|
E|-----------------------1-------1-------1-----------------------------------|

3. But if it’s only tears and pain Isn’t it still worth the cost


e|---------------------------------------------------------------------------|
B|---------------------3---------3-----------------------------1-1-----------|
G|---------------------0-5-----5-4-----------------------------0-0-----0-----|
D|-------------------0-------0-------0-----------------------2-2-3---3---2---|
A|---------------------------------------------------------3-------3-------3-|
E|-----------------3-------5-------7-----------------------------------------|

Like some sweet saving grace Or a river we must cross


e||-------------------------1---5---3----------------------------------------|
B||-----------------------3---------------1------------------1---------------|
G||--------------------3---------0---------0--------------0---------0-------|
D||------------------------------------2------------------------------------|
A||-----------------------------------3------------------3-------------------|
E||-------------------3-------3------------------------1---------------------|

If we don’t understand What this life is made of
4. Cause when innocence is lost There was not faith enough


e|--------------------------------------------------------------------------||
B|-------1-----0-------3---------3---------------------------1-1------------||
G|-----2---------0-----0-5-----5-4---------------------------0-0-----0-----||
D|-------------------0-------0-------0---------------------2-2-3---3---2---||
A|---3-------3-------------------------------------------3-------3-------3--||
E|-2-------2-------3-------5-------7----------------------------------------||

We learn the truth When we find that kind of love
We learn the truth When we find that kind of love

To play the most songs, including That Kind of Love by Alison Krauss by ukulele, the most crucial basic ukulele chords to learn are C chord, D chord, G chord, and Em chord.
These set you up to play a many of songs, and each of them is easy to learn.

Gravatar Image
Like to play Ukulele and Sudoku Game

Leave a Reply

Your email address will not be published. Required fields are marked *