The Air That I Breathe by The Hollies Ukulele Chords

Posted on

If you are searching for The Air That I Breathe ukulele chords, you already come to the best site.
You can play versatile instrument The Air That I Breathe using ukulele or guitar.
This song by The Hollies can also be played by that instruments.
=

The Air That I Breathe chords has rhythm and included in The Hollies Live – He Ain’t Heavy He’s My Brother album.
You can also find other musical genres, including jazz ukulele chords, country music ukulele chords, pop ukulele chords, world music ukulele chords, and rock ukulele chords here.

The Air That I Breathe by The Hollies Ukulele Chords


------------------------------------------------------------------------------

THE AIR THAT I BREATHE ‘ THE HOLLIES


-------------------------------------------------------------------------------

Tuning:Standard


e|-------------------------------------0------------1-1-1-1-1----1-1-1-1-1-|
B|----1--0--1--3--1--0--------------------3-1-0-----1-1-1-1-1----1-1-1-1-1-|
G|----------------------0---1--1--1--1--------------2-2-2-2-2----1-1-1-1-1-|
D|----2---------------------2--2--2--2--------------3-3-3-3-3----3-3-3-3-3-|
A|-3--3---------------------2--2--2--2----------0---3-3-3-3-3--3-3-3-3-3-3-|
E|--------------------------------------------------1-1-1-1-1----1-1-1-1-1-|
e|-------------------------------------------------------------------------|
B|-1-3-1-------------------------------------------------------------------|
G|-------------------------------------------------------------------------|
D|-----2-------------------------------------------------------------------|
A|-----3-------------------------------------------------------------------|
E|-------------------------------------------------------------------------|

CHORDS

If I could make a wish, I think I’d pass,
Can’t think of anything I need.

No cigarettes, no sleep, no light, no sound,
Nothing to eat, no books to read.

Bridge: E Fm C
Making love with you has left me peaceful, warm and tired.
What more could I ask? There’s nothing left to be desired.

Peace came upon me and it leaves me weak,
So sleep, silent angel, go to sleep.

Chorus:
Sometimes all I need is the air that I breathe and to love you.
All I need is the air that I breathe, yes, to love you.
All I need is the air that I breathe.

Instrumental: Gm F C G

Peace came upon me and it leaves me weak,
So sleep, silent angel, go to sleep.

Chorus to fade
Sometimes all I need is the air that I breathe and to love you.
All I need is the air that I breathe, yes, to love you.
All I need is the air that I breathe.

To play the most songs, including The Air That I Breathe by The Hollies by ukulele, the most crucial basic ukulele chords to learn are C chord, D chord, G chord, and Em chord.
These set you up to play a a lot of songs, and each of them is easy to master.

Gravatar Image
Like to play Ukulele and Sudoku Game

Leave a Reply

Your email address will not be published. Required fields are marked *