The Meaning by Supertramp Ukulele Chords

Posted on

If you are looking for The Meaning ukulele chords, you’ve visit to the best site.
You can play versatile instrument The Meaning using ukulele or guitar.
This song by Supertramp can also be played by that instruments.
=

The Meaning chords has rhythm and included in Crisis? What Crisis? (1975) album.
You can also get other musical style, including jazz ukulele chords, country music ukulele chords, pop ukulele chords, world music ukulele chords, and rock ukulele chords here.

The Meaning by Supertramp Ukulele Chords

(Intro)


e|-----0-----------0-------|-----0-----------2-------|-----0-----------0-------|-----0-----------2-------|
B|-------2-----------2-----|-------2-----3-------3---|-2-----2-----------2-----|-------2-----3-------3---|
G|---0-------0---0-------0-|---0-------0-------------|---0-------0---0-------0-|---0-------0-------------|
D|-4-------4---4-------4---|-4-------4---------------|-4-------4---4-------4---|-4-------4---------------|
A|-------------------------|-------------------------|-------------------------|-------------------------|
E|-------------------------|-------------------------|-------------------------|-------------------------|

(Verse)


e|-----0-----------0-------|-----0-----------0-------|-----0-----------0-------|-----0-----------0-------|
B|-------2-----------2-----|-------7-----------7-----|-------2-----------2-----|-------7-----------7-----|
G|---0-------0---0-------0-|---0-------0---0-------0-|---0-------0---0-------0-|---0-------0---0-------0-|
D|-4-------4---4-------4---|-9-------9---9-------9---|-4-------4---4-------4---|-9-------9---9-------9---|
A|-------------------------|-------------------------|-------------------------|-------------------------|
E|-------------------------|-------------------------|-------------------------|-------------------------|

“Just look at the… “you call your… “Just kidding… “never alone…


e|-----0-----------0-------|-----0-----------0-------|-----0-----------0-------|-----0-----------0-------|
B|-------2-----------2-----|-------7-----------7-----|-------7-----------7-----|-------7-----------7-----|
G|---0-------0---0-------0-|---0-------0---0-------0-|---0-------0---0-------0-|---0-------0---0-------0-|
D|-4-------4---4-------4---|-9-------9---9-------9---|-7-------7---7-------7---|-7-------7---7-------7---|
A|-------------------------|-------------------------|-------------------------|-------------------------|
E|-------------------------|-------------------------|-------------------------|-------------------------|

“Well maybe there’s… “one thing you… “said… “so you better..

(Pre-Chorus)


e|-----0-----------0-------|-----0-----------0-------|-----0-----------0-------|-----0-----------0-------|
B|-------7-----------7-----|-------7-----------7-----|-------7-----------7-----|-------7-----------7-----|
G|---7-------7---7-------7-|---6-------6---6-------6-|---5-------5---5-------5-|---4-------4---4-------4-|
D|-0-------0---0-------0---|-0-------0---0-------0---|-0-------0---0-------0---|-0-------0---0-------0---|
A|-------------------------|-------------------------|-------------------------|-------------------------|
E|-------------------------|-------------------------|-------------------------|-------------------------|


e|-----0-----------0-------|-----0-----------0-------|-----0-----------0-------|-----0-----------0-------|
B|-------3-----------3-----|-------3-----------3-----|-------3-----------3-----|-------3-----------3-----|
G|---3-------3---3-------3-|---2-------2---2-------2-|---2-------2---2-------2-|---2-------2---2-------2-|
D|-0-------0---0-------0---|-0-------0---0-------0---|-0-------0---0-------0---|-0-------0---0-------0---|
A|-------------------------|-------------------------|-------------------------|-------------------------|
E|-------------------------|-------------------------|-------------------------|-------------------------|

“And you better get… “light in your… “And you better get… “peace in your

[D-]


e|-----0-----------0-------|-----0-----------0-------|-----0-----------0-------|-----0-----------0-------|
B|-------3-----------3-----|-------3-----------3-----|-------3-----------3-----|-------3-----------3-----|
G|---3-------3---3-------3-|---2-------2---1-------1-|---0-------0---0-------0-|---0-------0---0-------0-|
D|-0-------0---0-------0---|-0-------0---0-------0---|-0-------0---0-------0---|-0-------0---0-------0---|
A|-------------------------|-------------------------|-------------------------|-------------------------|
E|-------------------------|-------------------------|-------------------------|-------------------------|

“If you wanna get… “high…

(Chorus)


e|-----7-----------7-------|-----5-----------5-------|-----7-----------7-------|-----5-----------5-------|
B|-------8-----------8-----|-------5-----------7-----|-------8-----------8-----|-------5-----------7-----|
G|---7-------7---7-------7-|---6-------6---7-------7-|---7-------7---7-------7-|---6-------6---7-------7-|
D|-0-------0---0-------0---|-0-------0---0-------0---|-0-------0---0-------0---|-0-------0---0-------0---|
A|-------------------------|-------------------------|-------------------------|-------------------------|
E|-------------------------|-------------------------|-------------------------|-------------------------|

“You’re holding… “palm… “hands… “you’re telling… “dont… “stand…


e|-----5-----------5-------|-----3-----------3-------|-----3-----------3-------|-----2-----------2-------|
B|-------6-----------6-----|-------5-----------5-----|-------3-----------3-----|-------3-----------3-----|
G|---5-------5---5-------5-|---5-------5---5-------5-|---4-------4---4-------4-|---2-------2---2-------2-|
D|-0-------0---0-------0---|-0-------0---0-------0---|-0-------0---0-------0---|-0-------0---0-------0---|
A|-------------------------|-------------------------|-------------------------|-------------------------|
E|-------------------------|-------------------------|-------------------------|-------------------------|

“if you know… “if you know… “if you know… “if you know…


e|-----5-----------5-------|-----3-----------3-------|-----3-----------3-------|-----2-----------2-------|
B|-------6-----------6-----|-------5-----------5-----|-------3-----------3-----|-------3-----------3-----|
G|---5-------5---5-------5-|---5-------5---5-------5-|---4-------4---4-------4-|---2-------2---1-------1-|
D|-0-------0---0-------0---|-0-------0---0-------0---|-0-------0---0-------0---|-0-------0---0-------0---|
A|-------------------------|-------------------------|-------------------------|-------------------------|
E|-------------------------|-------------------------|-------------------------|-------------------------|

“if you know… “if you know… “if you know… “meaning is, meaning is,


e|-----2-----------2-------|-----2-----------2-------|
B|-------3-----------3-----|-------3-----------3-----|
G|---0-------0---0-------0-|---0-------0---0-------0-|
D|-0-------0---0-------0---|-0-------0---0-------0---|
A|-------------------------|-------------------------|
E|-------------------------|-------------------------|

“meaning is…

To play the this songs, including The Meaning by Supertramp by ukulele, the most crucial basic ukulele chords to learn are C chord, D chord, G chord, and Em chord.
These set you up to play a ton of songs, and each of them is easy to master.

Leave a Reply

Your email address will not be published.