The Show by Sanctus Real Ukulele Chords

Posted on

If you are looking for The Show ukulele chords, you have visit to the right place.
You can play versatile instrument The Show using ukulele or guitar.
This song by Sanctus Real can also be played by that instruments.
=

The Show chords has rhythm and included in Fight the Tide (2004) album.
You can also find another musical style, including jazz ukulele chords, country music ukulele chords, pop ukulele chords, world music ukulele chords, and rock ukulele chords here.

The Show by Sanctus Real Ukulele Chords


Tuning: Eb Ab Db Gb Bb Eb

Intro and Verse-


Eb[------------------------------------------------]
Bb[--10---10-10---10---10-10---9---9-9---9---9-9---]
Gb[--6----6--6----6----6--6----6---6-6---6---6-6---]
Db[--7----7--7----7----7--7----6---6-6---6---6-6---]
Ab[------------------------------------------------]
Eb[------------------------------------------------]

Chorus
1st, 2nd and 4th time 3rd time


Eb[-----------------------------------] [-----------------------------------]
Bb[-----------------------------------] [-----------------------------------]
Gb[--7-7-7-7-6-6-6-6-1-1-1-1-1-1-1-1--] [--7-7-7-7-6-6-6-6-4-4-4-4-4-4-4-4--]
Db[--7-7-7-7-7-7-7-7-2-2-2-2-2-2-2-2--] [--7-7-7-7-7-7-7-7-2-2-2-2-2-2-2-2--]
Ab[--9-9-9-9-7-7-7-7-2-2-2-2-2-2-2-2--] [--9-9-9-9-7-7-7-7-2-2-2-2-2-2-2-2--]
Eb[--5-5-5-5-5-5-5-5-0-0-0-0-0-0-0-0-- --5-5-5-5-5-5-5-5-0-0-0-0-0-0-0-0--]

then you go back to the verse and it does it the same way as the first time

the chorus is also the same

BRIDGE-


Eb[-------------------------------------------
Bb[-------------------------------------------
Gb[-------------------------------------------
Db[-9-9-9-9-9-9-9-11-12-12-12-12-12-12-12-12--
Ab[-9-9-9-9-9-9-9-11-12-12-12-12-12-12-12-12--
Eb[-7-7-7-7-7-7-7-7--10-10-10-10-10-10-10-10--
----------------------------------]
----------------------------------]
----------------------------------]
-7-7-7-7-7-7-7-7-6-6-6-6-6-6-6-6--]
-7-7-7-7-7-7-7-7-7-7-7-7-7-7-7-7--]
-5-5-5-5-5-5-5-5-4-4-4-4-4-4-4-4--]

Then at the solo section, the rythm guitar plays the same thing as the bridge,
and the solo goes:


Eb[-------------------------------------------------------12--10--9-10-9--17-]
Bb[--------------------10---13^--9----10-9-10-9-10-9-9-----------------------]
Gb[--9--7--6/7^-7--------------------------------------9---------------------]
Db[----------------7---------------------------------------------------------]
Ab[--------------------------------------------------------------------------]
Eb[--------------------------------------------------------------------------]

On the chorus (or actually half a chorus) where it is just gitar strumming,
it goes:


Eb[---------------------]
Bb[--7------5------0----]
Gb[--7------6------9----]
Db[--7------7------9----]
Ab[--9------7------7----]
Eb[---------------------]

repeat that, then go into the chorus like it is originally played ( except
you start on the third time)
Then it plays the whole chorus like it is originaly played, then it plays
the bridge
Then it ends on that chord progresson where it is just guitar and vocals.

That’s it.
Correct or add anything if you want to.
Ya’ll keep rockin. . . JO!!!
brandon- JO!!!

To play the this songs, including The Show by Sanctus Real by ukulele, the most important basic ukulele chords to learn are C chord, D chord, G chord, and Em chord.
These set you up to play a ton of songs, and each of them is easy to master.

Gravatar Image
Like to play Ukulele and Sudoku Game

Leave a Reply

Your email address will not be published. Required fields are marked *