The Silent Enigma by Anathema Ukulele Chords

Posted on

If you are looking for The Silent Enigma ukulele chords, you already visit to the right place.
You can play versatile instrument The Silent Enigma using ukulele or guitar.
This song by Anathema can also be played by that instruments.
=

The Silent Enigma chords has rhythm and included in Other Songs album.
You can also get another musical style, including jazz ukulele chords, country music ukulele chords, pop ukulele chords, world music ukulele chords, and rock ukulele chords here.

The Silent Enigma by Anathema Ukulele Chords


Words and music by Anathema

Tabbed by Sumoman

(/) Slide Up () Slide Down (h) Hammer On (p) Pull Off (b) Bend (r) Release (v) Vibrato

CHORDS USED


E|-------------------------------------------------------------
B|-------------------------------------------------------------
G|---2---------5-----------------------------------------------
D|---2----2----5---3-------------------------------------------
A|---0----2----3---3-------------------------------------------
E|--------0--------1-------------------------------------------

INTRO


E|------------------------------------------------(expression/volume pedal)
B|--------------0-----------------0-----------------0v--v--v--v--v--v--
G|--------5--------5--------5--------5--------5------------------------
D|-----7-----7-----------7-----7-----------5-----5---------------------
A|--0-----------------0-----------------0------------------------------
E|---------------------------------------------------------------------x2
E|------------------------------------------------(expression/volume pedal)
B|--------0-----------------0------------------------------------------
G|--------------2-----------------2-----------7------------------------
D|-----3-----3-----3-----3-----3-----3--/--5-----5v--v--v--v--v--v--v--
A|--0-----------------0-----------------0------------------------------
E|---------------------------------------------------------------------
E|-----------------------------------------------------------------
B|--------0-----------------0--------------------------------------
G|--------------2--------------2-----------7---------5--7--5--4----
D|-----3-----3-----3-----3--------3--/--5-----5-----5--------------
A|--0-----------------0--------------0-----------------------------
E|-----------------------------------------------------------------
E|--5--------3--------------------------5--------3--------------------------
B|-3---3--------3-----6--------5-----------3--------3-----6--------5--------
G|3-------3--------3-----3--------3-----------3--------3-----3--------3-----
D|x-------------------------3--------3--------------------------3--------3--
A|--------------------------------------------------------------------------
E|--------------------------------------------------------------------------
E|-------------------------------------------
B|-5--5h6--------5--------6--8--6--5h6p5-----
G|---------5--------5---------------------7--
D|------------5--------5---------------------
A|-------------------------------------------
E|-------------------------------------------
E|--------------------8--6--5h6p5-----------
B|--6--------5---------------------8--6--5--
G|-----5--------5---------------------------
D|--------5--------5------------------------
A|------------------------------------------
E|------------------------------------------

1st PART

Guitar 1 – plays the chords
Guitar 2 – plays RIFF1

In dreamland grandeur

I held mesmerised peace

Innocence breathed again

RIFF1


E|--5--------3--------------------------5--------3--------------------------
B|-----3--------3-----6--------5-----------3--------3-----6--------5--------
G|--------3--------3-----3--------3-----------3--------3-----3--------3-----
D|--------------------------3--------3--------------------------3--------3--
A|--------------------------------------------------------------------------
E|--------------------------------------------------------------------------
E|--------------------------------------------
B|--5--5h6--------5--------6--8--6--5h6p5-----
G|----------5--------5---------------------7--
D|-------------5--------5---------------------
A|--------------------------------------------
E|--------------------------------------------
E|--------------------8--6--5h6p5-----------
B|--6--------5---------------------8--6--5--
G|-----5--------5---------------------------
D|--------5--------5------------------------
A|------------------------------------------
E|------------------------------------------
E|--5--------3--------------------------5--------3--------------------------
B|-----3--------3-----6--------5-----------3--------3-----6--------5--------
G|--------3--------3-----3--------3-----------3--------3-----3--------3-----
D|--------------------------3--------3--------------------------3--------3--
A|--------------------------------------------------------------------------
E|--------------------------------------------------------------------------

use octaver here


E|----------(5)-----(7)/(8)(7)--(5)--(3)--(5)------------
B|--3--3h5--(3)v----(5)/(6)(5)--(3)--(1)--(3)v-----------
G|-----4-----2-v-----4-/-5--4----2----0----2-v-----------
D|--------------------------------------------------------
A|--------------------------------------------------------
E|--------------------------------------------------------

2nd PART

Guitar 2 – plays RIFF2
Guitar 1 – plays RIFF3

() – ghost notes

Played eith octaver

RIFF2


E|-(7)/(8)--(5)--(7)/(8)(7)--(5)--(3)--(5)--
B|-(5)/(6)--(3)--(5)/(6)(5)--(3)--(1)--(3)--
G|--4-/-5----2----4-/-5--4----2-p--0----2---
D|-------------------------------------------
A|-------------------------------------------
E|-------------------------------------------x4

RIFF3


E|-------------------------------------------
B|-------------------------------------------
G|--4-/-5----2----4-/-5--4------------------
D|-----------------------------7----5----7---
A|--2-/-3----0----2---3---2------------------
E|-----------------------------5----3----5---x4

A mind’s escape

Leave walls of tears behind

Etheral vison haunting still…

Solitude left me blind

ENDING


E|-(7)/(8)--(5)--(3)-------------------------
B|-(5)/(6)--(3)--(1)-------------------------
G|--4-/-5----2----0-/-4vvv-------------------
D|-------------------------------------------
A|-------------------------------------------
E|-------------------------------------------

3rd PART

Guitar 1 – plays the chords
Guitar 2 – plays RIFF4

RIFF4


E|--------------------------------
B|-----------0-----------0--------
G|--------5-----------5-----5-----
D|-----7-----------7-----------7--
A|--0-----------8-----------------
E|--------------------------------x22

Beneath an open sky

Sibilant cries of youth dying

Enslave me with grief

A moonlight era

Oblivion’s twilight kiss

Wishes in lament

Happines is a broken vision

Utopia still unborn

Tormented echoes of fallen Eden
I longed for her beauty
Yet from dust, she returned
The dream, an enigma… silent


E|---------------------------------
B|---------------------------------
G|--0/2v--4/52v--4/54v--2p0---2--
D|---------------------------------
A|---------------------------------
E|---------------------------------

4th PART

Guitar 1 – plays RIFF5
Guitar 2 – plays a kind of a solo

RIFF5


E|--------------------------
B|--------------------------
G|--4h5-----4h5--4--2p0--2--
D|-------7------------------
A|--------------------------
E|-------5-------3-------1--

Tormented echoes of fallen Eden
I longed for her beauty
Yet from dust, she returned
The dream, an enigma… silent

That’s all
Hope you’ll like it

To play the most songs, including The Silent Enigma by Anathema by ukulele, the most important basic ukulele chords to learn are C chord, D chord, G chord, and Em chord.
These set you up to play a ton of songs, and each of them is easy to master.

Leave a Reply

Your email address will not be published.