The Truth About Heaven by Armor for Sleep Ukulele Chords

Posted on

If you are looking for The Truth About Heaven ukulele chords, you have come to the right place.
You can play versatile instrument The Truth About Heaven using ukulele or guitar.
This song by Armor for Sleep can also be played by that instruments.
=

The Truth About Heaven chords has rhythm and included in What to Do When You Are Dead (2005) album.
You can also get another musical genres, including jazz ukulele chords, country music ukulele chords, pop ukulele chords, world music ukulele chords, and rock ukulele chords here.

The Truth About Heaven by Armor for Sleep Ukulele Chords

Amor For Sleep
The Truth About Heaven
What Do You Want to Do When You Are Dead
2005

Key: D

Tuning: Standard EADGBe

Chords used:
G – 320033
A – x02220
F#/Bb – x143xx
Bm – x24432
D – xx0232
Em – 022000
[-]
[-]


Intro: G--A-F#/Bb-Bm--- x2

Guitar 2:
[F#/Bb]


e|-5--0--2-|-5--0--2-|-0h2h3p2-|-2--0---2------5-5-5--5-5-5-|
B|---------|---------|---------|-----------3----------------|
G|---------|---------|---------|----------------------------|
D|---------|---------|---------|----------------------------| x2
A|---------|---------|---------|----------------------------|
E|---------|---------|---------|----------------------------|

Cool Riff:


e|-14--14--------------------------------|
B|---------------------------------------|
G|--------12--14-14-12--14-14-12--14--12-|
D|---------------------------------------| x2
A|---------------------------------------|
E|---------------------------------------|

Verse 1:
Walk past my grave in the dark tonight
Saw the stone and the note you left for me
To answer your question
i just had to leave I just had to leave
But thats not why im here

Chorus:
I came out here to tell you
it [F#/Bb]rains in heaven all day long
I want to find you so bad to [F#/Bb]let you
know im miserable up here without you

Bass Riff: Em–G x2


G|-----------------------------------------------------------|
D|-------------------------------------------------0h2-2-2p0-|
A|-----------------------------------------------------------| x2
E|--0--0-0-0-0-0-0-0-0-0-0-0-0-0--3--3-3-3-3-3-3-3-----------|

Verse 2:
Found my way back in the dark tonight
Couldn’t wake up not right next to you
I traded forever to just
hear you say the sound of my name
But thats not why im here

(Repeat Chorus)

Bridge:
Dont believe that its better
when you leave everything behind
dont believe that the weather
is perfect the day that you die
D(hold) F#m G
dont believe that the weather
Gm(hold)
is perfect the day that you die

(Repeat Chorus)

Outro:
D(hold) F#m G
dont believe that the weather
Gm(hold)
is perfect the day that you die

To play the this songs, including The Truth About Heaven by Armor for Sleep by ukulele, the most important basic ukulele chords to learn are C chord, D chord, G chord, and Em chord.
These set you up to play a a lot of songs, and each of them is easy to master.

Leave a Reply

Your email address will not be published.