This Everyday Love by Rascal Flatts Ukulele Chords

Posted on

If you are looking for This Everyday Love ukulele chords, you already visit to the best place.
You can play versatile instrument This Everyday Love using ukulele or guitar.
This song by Rascal Flatts can also be played by that instruments.
=

This Everyday Love chords has rhythm and included in Rascal Flatts (2000) album.
You can also find another musical style, including jazz ukulele chords, country music ukulele chords, pop ukulele chords, world music ukulele chords, and rock ukulele chords here.

This Everyday Love by Rascal Flatts Ukulele Chords

Chords used in this song :
[F/A]


e -x- --- --- --- ---
B -x- --- --- --- ---
G --- -x- --- --- ---
D --- --- -x- --- ---
A --- --- --- --- ---
E --- --- --- --- --- C/B
e --- --- --- --- ---
B --- --- --- --- -x-
G --- --- --- --- -x-
D --- --- --- --- -x-
A --- -x- --- --- ---
E --- --- --- --- --- C
e --- --- --- --- ---
B -x- --- --- --- ---
G --- --- --- --- ---
D --- -x- --- --- ---
A --- --- -x- --- ---
E --- --- -o- --- --- F
e -x- --- --- --- ---
B -x- --- --- --- ---
G --- -x- --- --- ---
D --- --- -x- --- ---
A --- --- -x- --- ---
E -x- --- --- --- ---


e --- --- -x- --- ---
B --- --- --- --- ---
G --- --- --- --- ---
D --- --- --- --- ---
A --- -x- --- --- ---
E --- --- -x- --- --- A
e --- --- --- --- ---
B --- -x- --- --- ---
G --- -x- --- --- ---
D --- -x- --- --- ---
A --- --- --- --- ---
E --- --- --- --- --- B
e --- -o- --- --- ---
B --- --- --- -x- ---
G --- --- --- -x- ---
D --- --- --- -x- ---
A --- -x- --- --- ---
E --- -o- --- --- --- Am
e --- --- --- --- ---
B -x- --- --- --- ---
G --- -x- --- --- ---
D --- -x- --- --- ---
A --- --- --- --- ---
E --- --- --- --- ---


e -o- --- --- --- ---
B --- --- -x- --- ---
G --- --- -x- --- ---
D --- --- -x- --- ---
A -x- --- --- --- ---
E -o- --- --- --- --- D
e --- -x- --- --- ---
B --- --- -x- --- ---
G --- -x- --- --- ---
D --- --- --- --- ---
A --- --- --- --- ---
E --- --- --- --- --- Bm
e --- -x- --- --- ---
B --- --- -x- --- ---
G --- --- --- -x- ---
D --- --- --- -x- ---
A --- -x- --- --- ---
E --- -o- --- --- --- D/F#
e --- -x- --- --- ---
B --- --- -x- --- ---
G --- -x- --- --- ---
D --- --- --- --- ---
A --- --- --- --- ---
E --- -x- --- --- ---


e --- -x- --- --- ---
B --- -x- --- --- ---
G --- --- -x- --- ---
D --- --- --- -x- ---
A --- --- --- -x- ---
E --- -x- --- --- ---

Everyday love

[F/A] [C/B]


----1--------- -------0------
----1--------- -------1------
----0--------- -------0------
----2--------- -------0------
-------------- -------2------
-------------- --------------

INTRO:C C/B F F/A G…G F/A F C/B C C C/B F F/A G…G F/A F C/B C

Each mornin’ the sun shines through my window[C/B][F/A]
Lands on the face of a dream come true[F/A][C/B]
I shuffle to the kitchen for my coffee[C/B][F/A]
And catch up on the front page mornin’ news[F/A][C/B]
Then she walks up behind me
And throws her arms around my neck
Just another moment that
I come to expect
(CHORUS)
Its ordinary, plain and simple
Typical of this everyday love
Same old, same old, keepin it, same old, everyday love
Emotion is so familiar
Nothin’ bout it too peculiar
Oh, but I can’t get enough
Of this everyday love

INTRO (X1) C C/B F F/A G…G F/A F C/B C

(VERSE 2)
Every afternoon I make a phone call[C/B][F/A]
Listen to the voice that warms my heart[F/A][C/B]
I drag myself through a few more hours[C/B][F/A]
Then head on home to try and beat the dark[F/A][C/B]
Her smile will be right there
When I step through that door
And it’ll be that way tomorrow
Just like everyday before

(CHORUS)
Its ordinary, plain and simple
Typical of this everyday love
Same old, same old, keepin it, same old, everyday love
Emotion is so familiar
Nothin’ bout it too peculiar
Oh, but I can’t get enough
Of this everyday love

(BRIDGE)
Wouldn’t change one single thing about it, no
It’s a run of the mill, still I can’t live without it

Its ordinary, plain and simple
Typical of this everyday
Same old, same old, keepin it,
This everyday love
Emotion is so familiar
Nothin bout it too peculiar
Oh but I can’t get enough
Of this everyday love
Yeah, of this everyday love …

OUTRO:D D/F# G D/F# A…A D/F# G D/F# D…D D/F# G D/F# A

To play the most songs, including This Everyday Love by Rascal Flatts by ukulele, the most crucial basic ukulele chords to learn are C chord, D chord, G chord, and Em chord.
These set you up to play a ton of songs, and each of them is easy to master.

Leave a Reply

Your email address will not be published.