Those Words We Said by Kim Richey Ukulele Chords

Posted on

If you are searching for Those Words We Said ukulele chords, you already visit to the best site.
You can play versatile instrument Those Words We Said using ukulele or guitar.
This song by Kim Richey can also be played by that instruments.
=

Those Words We Said chords has rhythm and included in Kim Richey (1995) album.
You can also get another musical genres, including jazz ukulele chords, country music ukulele chords, pop ukulele chords, world music ukulele chords, and rock ukulele chords here.

Those Words We Said by Kim Richey Ukulele Chords


Date: Thu, 4 Dec 1997
From: linaria@hotmail.com
Subject: Kim Richey songs

THOSE WORDS WE SAID (Kim Richey & Angelo)


-----------------------------------------

[Actually in Ab/Fm; capo 1.]
[This is Kim Richey’s version. Trisha Yearwood’s version is different in
the following ways: (a) It’s in A/F#m (capo 2); (b) No acoustic guitar
intro, and shorter intro overall; (c) The end of the guitar solo is
different; (d) The ending is shorter.]
[The A’s in parentheses among the Em’s are short.]
[I think Kim plays the Em parts as Em Em/G Em Em/G; that is, she uses her
pinky or ring finger on the 3rd fret of the low E string to raise the bass
note to a G on the backbeat (2 & 4).]

Acoustic guitar intro: see tab at end of file.

[(A)] [intro][(A)][(A)][(A)][(A)]

I left you with nothing but a few tears in my eyes
Now I’m halfway down the interstate past Highway 99
It’s just me and one good wiper blade up against the rain

And I [C(9)]still hear the [C(9)]echoes of those bitter words we said
And I could [C(9)]drive a million m[C(9)]iles and never drive them from my head
D Em Em (A) Em Em (A)
Those words we said

No matter how I try, I can’t get far enough away
Every sad song on my radio sounds like it’s custom made
By some devil on my shoulder that keeps whispering in my ear

And I [C(9)]still hear the [C(9)]echoes of those bitter words we said
And I could dr[C(9)]ive a million m[C(9)]iles and never drive them from my
hea[-]d[D/C][D/B][-][D/A]

Those words that wounded like an arrow to the hear[-]t
C(9)
And keep me driving, driving

[guitar solo][-][D/C][D/B][-][D/A]

And I [C(9)]still hear the [C(9)]echoes of those bitter words we said
And I could dr[C(9)]ive a million m[C(9)]iles and never drive them from my head
D Em Em (A)
Those words we said
Those words [(A)]we said[(A)]

[repeat Em Em (A) several times, and end on Em.]

ACOUSTIC GUITAR INTRO:

Guitar #1 plays this part twice, then strums a Cmaj7 chord (x32000):


|----------------|----------0-----|----------------|--------0-------|
|----------------|--------0---0---|----------------|----------0-----|
|----------------|0-----0-------0-|----------------|0-----0-----0---|
|----4---0-----2-|----2-----------|----4---0-----2-|----2---------2-|
|--2-------2-0---|--3-------------|--2-------2-0---|--3-------------|
|0-----3---------|----------------|0-----3---------|----------------|

^ . ^ . ^ . ^ . ^ . ^ . ^ . ^ . ^ . ^ . ^ . ^ . ^ . ^ . ^ . ^ .

Guitar #2 plays this part the second time through:


|----------------|----------------|----------------|----------------|---|
|----------------|----------------|----------------|----------------|---|
|/4----------2---|--------0-------|----------------|----------------|---|
|------5---------|--4---------2---|/4----------2---|--------0-------|---|
|----------------|----------------|------5---------|--4---------2---|/7-|
|----------------|----------------|----------------|----------------|---|

^ . ^ . ^ . ^ . ^ . ^ . ^ . ^ . ^ . ^ . ^ . ^ . ^ . ^ . ^ . ^ . ^

To play the this songs, including Those Words We Said by Kim Richey by ukulele, the most important basic ukulele chords to learn are C chord, D chord, G chord, and Em chord.
These set you up to play a a lot of songs, and each of them is easy to master.

Gravatar Image
Like to play Ukulele and Sudoku Game

Leave a Reply

Your email address will not be published. Required fields are marked *