Through the Crowd by Hotel Lights Ukulele Chords

Posted on

If you are looking for Through the Crowd ukulele chords, you have come to the right site.
You can play versatile instrument Through the Crowd using ukulele or guitar.
This song by Hotel Lights can also be played by that instruments.
=

Through the Crowd chords has rhythm and included in Girl Graffiti (2011) album.
You can also find other musical style, including jazz ukulele chords, country music ukulele chords, pop ukulele chords, world music ukulele chords, and rock ukulele chords here.

Through the Crowd by Hotel Lights Ukulele Chords

“Through The Crowd”
by Hotel Lights
album Girl Graffiti
year 2011

main riff


E:------7-----8-7---7----8---7---7----8-|-7---7----8---|-7-------|
B:(8)-8----10-----8---10-------8---10---|---8---10-----|---8-----|
G:--------------------------------------|--------------|---------|
D:--------------------------------------|-don't play---|---------|
A:--------------------------------------|-this bar ----|---------|
E:--------------------------------------|-during verses|---------|

guitar in the background


E:----------------------------------|
B:-0----0---0-1-3-0----0---0-1-3----|
G:----0---0----------0---0----------|
D:----------------------------------|
A:----------------------------------|
E:----------------------------------|

G C x4


We could call the whole thing off I’d understand

i would never tie you down or rope you in

if there’s a reason to be cautious I’m not worried about it

G C x4


Look at you you’re moving fast through the neighborhood

walking by a taxi stall and standing still

if there’s a reason to be cautious I’m not worried about it

and it’s always Man I’ve got something on my mind

We don’t stand a chance it’s really only time
it’s really only time

G C x4

||
||
||


E:---------------------|------------|--------------------------------|
B:----------3--5-3-----|------------|--------------------------------|
G:-0--0-2-4--------5-4-|-2-0-2-0----|-0--0-2-4-s9--9-7-4--2-0-2-0----|
D:---------------------|----------0-|-----------------------------0--|
A:---------------------|------------|--------------------------------|
E:---------------------|------------|--------------------------------|


dreaming I lost myself I said too much

waking up in the same shirt I’m somewhere else

if there’s a reason to cautious I’m not worried about it
We were walking through the crowd
We were walking through the crowd
We were walking through the crowd

G C G C G C G (end)

(tab got previously DENIED for some reason, i didn’t change much, i think it’s accurate
and properly formatted)

To play the this songs, including Through the Crowd by Hotel Lights by ukulele, the most crucial basic ukulele chords to learn are C chord, D chord, G chord, and Em chord.
These set you up to play a ton of songs, and each of them is easy to master.

Leave a Reply

Your email address will not be published.