Thunder and Lightning by Metal Force Ukulele Chords

Posted on

If you are searching for Thunder and Lightning ukulele chords, you’ve come to the best place.
You can play versatile instrument Thunder and Lightning using ukulele or guitar.
This song by Metal Force can also be played by that instruments.
=

Thunder and Lightning chords has rhythm and included in album.
You can also get another musical genres, including jazz ukulele chords, country music ukulele chords, pop ukulele chords, world music ukulele chords, and rock ukulele chords here.

Thunder and Lightning by Metal Force Ukulele Chords


-----------------------------------------------------------------------------

Thunder and Lightning – Metalforce


-----------------------------------------------------------------------------

Song: Thunder and Lightning
Album: Metalforce
Artist: Metalforce (formerly and currently known as Majesty)
(P)&(C): 2009 Medieval Steel

Tabbed by: Michael “The Elder” Schreiber
Email: metal.warrior@gmx.net

Tuning: E-A-D-G-B-e

Comment: Feel free to enhance the solo, e.g. by bending strings,
or running up and down the scales as you please ;O)

Intro:


------
e|-----------------------------|-----------------------------|
B|-----------------------------|-----------------------------|
G|--9--------------------------|--7----9--9------------------|
D|--9--------------------------|--7----7--7------------------|
A|--7--------------------------|--5----7--7------------------|
E|-----------------------------|-----------------------------|

.


e|-----------------------------|-----------------------------|
B|-----------------------------|-----------------------------|
G|--5--------------------------|--7----9--9------------------|
D|--5--------------------------|--7----7--7------------------|
A|--3--------------------------|--5----7--7------------------|
E|-----------------------------|-----------------------------|

.


e|-----------------------------|-----------------------------|
B|-----------------------------|-----------------------------|
G|--9--------------------------|-----------------------------|
D|--9--------------------------|-10------9------7------5-----|
A|--7--------------------------|-10------9------7------5-----|
E|-----------------------------|--8------7------5------3-----|

. .


e|-----------------------------|-----------------------------|
B|-----------------------------|-----------------------------|
G|--9--------------------------|--7----9--9\\\-----------|
D|--9--------------------------|--7----7--7\\\-----------|
A|--7--------------------------|--5----7--7\\\-----------|
E|-----------------------------|-----------------------------|

.

Bridge:


-------
e|-----------------------------|-----------------------------|
B|-----------------------------|-----------------------------|
G|--9-------------9------------|-11------------11------------|
D|--9-------------9------------|-11------------11------------|
A|--7-------------7------------|--9-------------9------------|
E|-----------------------------|-----------------------------|

. . . .


e|-----------------------------|-----------------------------|
B|-----------------------------|-----------------------------|
G|-12------------12--------16--|-14------------14------------|
D|-12------------12--------16--|-14------------14------------|
A|-10------------10--------14--|-12------------12------------|
E|-----------------------------|-----------------------------|

. . . . .


e|-----------------------------|-----------------------------|
B|-----------------------------|-----------------------------|
G|--5--------------------------|--7--------------------------|
D|--5--------------------------|--7--------------------------|
A|--3--------------------------|--5--------------------------|
E|-----------------------------|-----------------------------|
e|-----------------------------|-----------------------------|
B|-----------------------------|-----------------------------|
G|--9--------------------------|------------------(9)////\\|
D|--9--------------------------|------------------(9)////\\|
A|--7--------------------------|------------------(7)////\\|
E|-----------------------------|-----------------------------|

(now the same but without the sliding at the end)


e|-----------------------------|-----------------------------|
B|-----------------------------|-----------------------------|
G|--9-------------9------------|-11------------11------------|
D|--9-------------9------------|-11------------11------------|
A|--7-------------7------------|--9-------------9------------|
E|-----------------------------|-----------------------------|

. . . .


e|-----------------------------|-----------------------------|
B|-----------------------------|-----------------------------|
G|-12------------12--------16--|-14------------14------------|
D|-12------------12--------16--|-14------------14------------|
A|-10------------10--------14--|-12------------12------------|
E|-----------------------------|-----------------------------|

. . . . .


e|-----------------------------|-----------------------------|
B|-----------------------------|-----------------------------|
G|--5--------------------------|--7--------------------------|
D|--5--------------------------|--7--------------------------|
A|--3--------------------------|--5--------------------------|
E|-----------------------------|-----------------------------|
e|-----------------------------|-----------------------------|
B|-----------------------------|-----------------------------|
G|--9--------------------------|-----------------------------|
D|--9--------------------------|-----------------------------|
A|--7--------------------------|-----------------------------|
E|-----------------------------|-----------------------------|

Verse:


------

The ‘M’-noted parts not played originally, just what I like to play:

[MMMMMMMMMMMMMMMMMMMMMMMMMMMMMMMMMMMMMMMMMMMMMMMMMMMMMMMMMMM]


e|-----------------------------|-----------------------------|
B|-----------------------------|-----------------------------|
G|--12--11--9------------9-----|--11--9----------------------|
D|--------------------12-------|---------12----12-12-12---12-|
A|-----------------------------|-----------------------------|
E|-----------------------------|-----------------------------|

_______/ . .

[MMMMMMMMMMMMMMMMMMMMMMMMMMM]


e|-----------------------------|-----------------------------|
B|-----------------------------|-----------------------------|
G|--9-------12--11--9----9-----|--12--11--9----9--11--9------|
D|-----------------------------|------------12---------------|
A|-----------------------------|-----------------------------|
E|-----------------------------|-----------------------------|

______/ ______/

Chorus: (Repeat Intro)

(Repeat Bridge)

(Repeat Verse)

Chorus: (Repeat Intro)


e|-----------------------------|-----------------------------|
B|-----------------------------|-------9----9----------------|
G|--12-12-12-11--9-------------|-------9----9----------------|
D|-----------------------------|--12-------------------------|
A|-----------------------------|-----------------------------|
E|-----------------------------|-----------------------------|

. .


e|-----------------------------|-----------------------------|
B|-----------------------------|-------9----9----------------|
G|--12-12-12-11--9-------------|-------9----9----------------|
D|-----------------------------|--12-------------------------|
A|-----------------------------|-----------------------------|
E|-----------------------------|-----------------------------|

. .


e|-----------------------------|
B|-----------------------------|
G|--17-17-17-1614----11~------|
D|--9--------------------------|
A|--7--------------------------|
E|-----------------------------|

Solo:

This is just roughly the way I like to play it –
you, just play as it suits you!


e|-----------------------------|-----------------------------|
B|-----------------------------|-----------------------------|
G|--12b--------12b-------9--11-|--14p12--9-11--12h11--9-11-9-|
D|-----------------------------|-----------------------------|
A|-----------------------------|-----------------------------|
E|-----------------------------|-----------------------------|

. ________/ ___________/


e|-----------------------------|-----------------------------|
B|-----------------------------|-----------------------------|
G|----------12p11--11---9------|----------12p11--9--11-------|
D|--12b~-------------------12--|--12b~------------------12---|
A|-----------------------------|-----------------------------|
E|-----------------------------|-----------------------------|

. .


e|-----------------------------|-----------------------------|
B|-----------------------------|------------------12b---12b--|
G|-----------------------------|--12b---12b-------12b---12b--|
D|--9--------------------------|-----------------------------|
A|-----------------------------|-----------------------------|
E|-----------------------------|-----------------------------|

. .

Chorus: (Repeat Intro, but this time let it ring as dissonant/shrill as needed ;O)

| ~ tremolo (trembling the finger, thus bending the string up and down)
| / slide up
| slide down
| b bend string
| . staccato (play note/chord promptly without sustain)
|_/ legato (play as one note, no accent for subsequent notes)

To play the most songs, including Thunder and Lightning by Metal Force by ukulele, the most important basic ukulele chords to learn are C chord, D chord, G chord, and Em chord.
These set you up to play a many of songs, and each of them is easy to learn.

Leave a Reply

Your email address will not be published.