Tom Sawyer by Rush Ukulele Chords

Posted on

If you are looking for Tom Sawyer ukulele chords, you’ve come to the best place.
You can play versatile instrument Tom Sawyer using ukulele or guitar.
This song by Rush can also be played by that instruments.
=

Tom Sawyer chords has rhythm and included in Moving Pictures (1981) album.
You can also find another musical genres, including jazz ukulele chords, country music ukulele chords, pop ukulele chords, world music ukulele chords, and rock ukulele chords here.

Tom Sawyer by Rush Ukulele Chords


N.C. (E)
A modern-day warrior
N.C. (E)
Mean mean stride,
N.C. (E)
Today’s Tom Sawyer
N.C. (E)
Mean mean pride.

[D/E] [A/E] [C/E]

Though his mind is not for rent,
[D/E] Don’t put him down as arrogant.
[A/E] His reserve, a quiet defense,
[C/E] Riding out the day’s events.
[G/B] The [G/B]river

[D/F#]
[D/F#]

And what you [D/F#]say about his company
Is what you say about society.
Catch the m[D/F#]ist, catch the myth
Catch the mystery, catch the drift.

[D/F#]
[C-Part]

The world is, the world is,
Love and life are deep,
Maybe as his eyes are wide.

N.C. (E)
Today’s Tom Sawyer,
N.C. (E)
He gets high on you,
N.C. (E)
And the space he invades
N.C. (E)
He gets by on you.


e|-----------------------------|
B|-----------------------------|
G|-----------------------------|
D|-7-4-6---4-----7---4-6-------| x10
A|-------7---5-----------7-5---|
E|---------------------------7-|


e|-----------------------------| |----------------------|
B|-----------------------------| |----------------------|
G|-----------------------------| |----------------------|
D|-7-4-6---------7---4-6-------| x3 |-7-4-6----------------|
A|-------7-5-------------7-5---| |-------7-5---------5--|
E|-----------7---------------7-| |-----------7-5--7-----|

All of this twice.


e|-----------------------------|
B|-----------------------------|
G|-----------------------------|
D|-7-4-6---4-----7---4-6-------| x2
A|-------7---5-----------7-5---|
E|---------------------------7-|
e|-----------------------------|
B|-----------------------------|
G|-7-4-6---------5---4-6-------|
D|-------7-5-------------7-5---| x2
A|-----------7---------------7-|
E|-----------------------------|
e|---------------------------------------------------|
B|---------------------------------------------------|
G|---------------------------------------------------|
D|-7-4-6---4-----7---4-6--------7-4-6----------------|
A|-------7---5-----------7-5----------7-5---------5--|
E|---------------------------7------------7-5--7-----|

[D/E] [A/E] [C/E]

No, his mind is not for rent
[D/E] To any god or government.
[A/E] Always hopeful, yet discontent,
[C/E] He knows changes aren’t permanent,
[G/B] But [G/B]change is.

[D/F#]
[D/F#]

And what you [D/F#]say about his company
Is what you say about society.
Catch the [D/F#]witness, catch the wit,
Catch the spirit, catch the spit.

[D/F#]
[C-Part]

The world is, the world is,
Love and life are deep,
Maybe as his skies are wide.

N.C. (E)
Exit the warrior,
N.C. (E)
Today’s Tom Sawyer,
N.C. (E)
He gets high on you,
N.C. (E)
And the energy you trade,
N.C. (E)
He gets right on to the friction of the day.

(Repeat and fade)

To play the this songs, including Tom Sawyer by Rush by ukulele, the most important basic ukulele chords to learn are C chord, D chord, G chord, and Em chord.
These set you up to play a ton of songs, and each of them is easy to learn.

Leave a Reply

Your email address will not be published.