Too Little Too Late by JoJo Ukulele Chords

Posted on

If you are searching for Too Little Too Late ukulele chords, you have come to the best site.
You can play versatile instrument Too Little Too Late using ukulele or guitar.
This song by JoJo can also be played by that instruments.
=

Too Little Too Late chords has rhythm and included in The High Road (2006) album.
You can also find other musical style, including jazz ukulele chords, country music ukulele chords, pop ukulele chords, world music ukulele chords, and rock ukulele chords here.

Too Little Too Late by JoJo Ukulele Chords

Jojo Levesque
Too Little Too Late
The High Road
2006
Tabbed by: paramore_fans@yahoo.com
This is the correct way to play this song

Tuning: Drop D

Chords used: Drop D only
D5 – 000xxx
F#5 – 444xxx
E5 – 222xxx
B5 – x244xx
Bm – x24432
A/C# – x4222x
F#4 – 447xx
E – 222100


e|-------|-------|--------------------|
B|-----2-|-----0-|-----0----0-0h2---0-|
G|---2---|---2---|---2----2-------2---|
D|-------|-------|--------------------|
A|-------|-------|--------------------|
D|-0-----|-4-----|-2------------------|

then


e|-------|-------|---------0------------|
B|-----2-|----0--|----------------------|
G|---2---|--2----|-----1--------1h2---2-|
D|-------|-------|---2---2----2-----2---|
A|-------|-------|----------------------|
D|-0-----|4------|-2--------------------|

Verse 1: (Same as intro except it’s last line, proceed below)
Come with me, stay the night You say the words, but boy it don’t feel right
What do you expect me to say (You know it’s just too little too late)
You take my hand, and you say you’ve changed But boy you know your beggin’ don’t fool me

Last line:
Because to you, it’s just a game (You know it’s just too little too late)


e|----------------------0----------------|
B|-----2-----0---------------------------|
G|---2-----2--------1--------1h2---2-----|
D|----------------2---2----2-----2-------|
A|-2-------------------------------------|
D|-------4------2------------------------|

( Tab from: http://www.guitartabs.cc/tabs/j/jojo/too_little_too_late_tab_ver_2.html )
Refrain 1: (listen carefully here)


e|---------0-------|---------0-------|----------------0---|
B|-----------------|-----------------|-----0----0-0h2-----|
G|---2---2---2---2-|---2---2---2---2-|---2----2---------2-|
D|-----0-------0---|-----------------|--------------------|
A|-----------------|-----4-------4---|--------------------|
D|-0---------------|-4---------------|-2------------------|

then


e|---------0-------|---------0-------|-----0-----------------0-----0---|
B|-----------------|-----------------|-----------2-----2-------------2-|
G|---2---2---2---2-|---2---2---2---2-|---2-----2-----2-----2-----------|
D|-----0-------0---|-----------------|-------0-----------0-------0-----|
A|-2---------------|-----4-------4---|---------------------------------|
D|-----------------|-4---------------|-0-----------0-----------0-------|

So let me on down,
Cause time has made me strong, I’m startin’ to move on,
I’m gonna say this now
Your chance has come and gone and you know

Chorus:
It’s just too [A/C#]little too late A little too wrong
And I can’t wait Boy you know [A/C#]all the right things to say
(You know it’s just too little too late)
You say you [A/C#]dream of my face But you don’t like me
You just like the chase
To be real, it [A/C#]doesn’t matter anyway
(You know it’s just too little too late.)

Post Chorus: hey yeah, it’s just too little too late


e|-------|-------|--------------------|
B|-----2-|-----0-|-----0----0-0h2---0-|
G|---2---|---2---|---2----2-------2---|
D|-------|-------|--------------------|
A|-------|-------|--------------------|
D|-0-----|-4-----|-2------------------|

then


e|-------|-------|---------0------------|
B|-----2-|----0--|----------------------|
G|---2---|--2----|-----1--------1h2---2-|
D|-------|-------|---2---2----2-----2---|
A|-2-----|-------|----------------------|
D|-------|4------|-2--------------------|

Verse 2: (Same as intro)
I was young, and in love, I gave you everything, but it wasn’t enough
And now you wanna communicate. (You know it’s just too little too late)

Refrain 2: (Same as Refrain 1)
Go find someone else In letting you go, I’m loving myself
You got a problem But don’t come asking me for help Cause you know

(Repeat Chorus)

Bridge:
I can love with all of my heart baby
I know I have so much to give (I have so much to give.)
With a player like you, I don’t have a prayer
That’s the way to live
[Bm-A/C#5] Mmm [F#4-E]oh It’s just [A/C#]too little too late.

Yeah!

(Repeat Chorus until fade out)

To play the this songs, including Too Little Too Late by JoJo by ukulele, the most crucial basic ukulele chords to learn are C chord, D chord, G chord, and Em chord.
These set you up to play a a lot of songs, and each of them is easy to master.

Leave a Reply

Your email address will not be published.