Treason by Kutless Ukulele Chords

Posted on

If you are searching for Treason ukulele chords, you’ve come to the right place.
You can play versatile instrument Treason using ukulele or guitar.
This song by Kutless can also be played by that instruments.
=

Treason chords has rhythm and included in Sea of Faces (2004) album.
You can also find another musical style, including jazz ukulele chords, country music ukulele chords, pop ukulele chords, world music ukulele chords, and rock ukulele chords here.

Treason by Kutless Ukulele Chords

record label:b.e.c. (division of tooth and nail)
album: sea of faces
written by jon micah sumrall

the other tabs of this song were either tuned wrong way off in the
chords or just out there so here is the right version:

drop d tuning d-a-d-g-b-e

i saw them in concert about a month
ago and that is about what they play.
i wont say its exactly what they play but its close

Intro 4x


E[---------------------]
B[---------------------]
G[---------------------]
D[-0-3-----6-0-3-----6-]
A[-0-3-5-5---0-3-5-5---]
D[-0-3-5-5---0-3-5-5---]

x x x x
Verse


E[---------] Play Intro
B[---------]
G[---------]
D[-8---6---]
A[-8---6---]
D[-8---6---]

Play 2x then on the next time
don’t play
intro just go directly to the chorus

Chorus 2x


E[----------------------------/----------]
B[----------------------------/----------]
G[----------------------------/----------]
D[-6--------8--------3--------/6---------]
A[-6--------8--------3--------/--3-5-5-5-]
D[-6--------8--------3--------/--3-5-5-5-]

Intro

Verse

Chorus

Bridge
4x 4x


E[-----------/-----------]
B[-----------/-----------]
G[-----------/-----------]
D[-3---------/-3-------6-]
A[-3---6p5---/-3---6p5---]
D[-3-------5-/-3---------]

chorus 2x

intro

that is the tab they are one of my favorite bands
they rock
questions / comments
email me at charliemot9@aol.com

To play the most songs, including Treason by Kutless by ukulele, the most crucial basic ukulele chords to learn are C chord, D chord, G chord, and Em chord.
These set you up to play a ton of songs, and each of them is easy to learn.

Leave a Reply

Your email address will not be published.