Tribute to Randy by Michael Angelo Batio Ukulele Chords

Posted on

If you are looking for Tribute to Randy ukulele chords, you have visit to the right site.
You can play versatile instrument Tribute to Randy using ukulele or guitar.
This song by Michael Angelo Batio can also be played by that instruments.
=

Tribute to Randy chords has rhythm and included in Hands Without Shadows (2005) album.
You can also find another musical genres, including jazz ukulele chords, country music ukulele chords, pop ukulele chords, world music ukulele chords, and rock ukulele chords here.

Tribute to Randy by Michael Angelo Batio Ukulele Chords

N.C. (F#) N.C.
[4/4] Gtr I
TP PM| PM PM
W E E E E E E Q +W W


|-------------|----------------|------------|------|
|-------------|----------------|------------|------|
|-------------|----------------|------------|------|
|-------------|----------------|------------|------|
|-(x)--------|-----4---5---4--|-(4)--------|------|
|-(x)--------|-2-2---2---2----|------------|------|

(F#) N.C.
Gtr IV
TP
W E E E E E E Q +W W


|----------|-----------------------|-------------|---------||
|----------|-------14----15----14--|-(14)--------|---------||
|----------|-----------------------|-------------|---------||
|----------|-16-16----16----16-----|-------------|---------||
|----------|-----------------------|-------------|-(x)----||
|----------|-----------------------|-------------|-(x)----||

Crazy Train…
[(F#)]Gtr I


PM| PM PM PM PM--| PM-----


||------------------|-----------------|
||o-----------------|-----------------|
||------------------|-----------------|
||------------------|-----------------|
||o-----4---5---4---|-2-------2-------|
||--2-2---2---2---2-|---5-4-5---5-4-0-|

1.,2.,3. 4.
[D5/A] [E5/B]


---| PM PM PM PM--| PM--|


|-----------------|------------------||---------------||
|-----------------|-----------------o||---------------||
|-----------------|------------------||--7------9-----||
|-----------------|------------------||--7------9-----||
|-----4---5---4---|-2-------2-------o||--5------7-----||
|-2-2---2---2---2-|---5-4-5---5-4-0--||-(5)----(7)----||

[E/Ab] [D/F#]


PM| PM----| PM----| PM| PM|

E E E S S S S E S S S S E E E E +E E E E 4x


||--------------------------|--------------------||
||o-----5---------5---------|-3-----2-(2)-------o||
||------6---------4---------|-2-----2-(2)-----2--||
||------7---------6---------|-4-----2-(2)-----2--||
||o-0-0---0-0-0-0---0-0-0-0-|---0-0-------0-0-0-o||
||--------------------------|--------------------||

[E/Ab] [D/F#] ~
S S S S S S S S S S S S S S S S S S S S S S S S S S S S S S E


|---------5-9p5-------------------|--------------5-9p5--------------|
|---------------------5-9p5-------|----------------------------------|
|-----6h9-------9p6-------------7-|-11p7-----------------9p6---------|
|-7h9---------------7-------9p6---|------7-------------------7-------|
|---------------------------------|--------7-9p5---------------7-----|
|---------------------------------|------------------------------9p5-|

|
| Gtr II


| PM--| PM----| PM----| PM--| PM--|

| E E E S S S S E S S S S E E E E +E E E E


|---------------------------------|----------------------------------|
|---------5-----------5-----------|--3-----------2---(2)-------------|
|---------6-----------4-----------|--2-----------2---(2)-----------2-|
|---------7-----------6-----------|--4-----------2---(2)-----------2-|
|-0---0-------0-0-0-0-----0-0-0-0-|------0---0-------------0---0---0-|
|---------------------------------|----------------------------------|

~~~[E/Ab]
+E. S S S S S S S S S S S S S


|------------------------------------------|
|-------------------------------12p10s9h10-|
|----------------------11p9p8s9------------|
|-------14p12p11s10h11---------------------|
|------------------------------------------|
|-(5)--------------------------------------|

|


| PM-| PM------| PM-----|

| E E E S S S S E S S S S


|------------------------------------------|
|-----------5---------------5--------------|
|-----------6---------------4--------------|
|-----------7---------------6--------------|
|--0--0-----------0--0--0-0------0--0-0--0-|
|------------------------------------------|

[D/F#] ~~~~~~~~~~~~~~


|------6-------|

S S S S S S S S S S E +E +E +E


|--------------------/16-14-12-14-19b21(19)-(19)-(19)r--||
|-/17p15p14s12h14p12--------------------------------------||
|---------------------------------------------------------||
|---------------------------------------------------------||
|---------------------------------------------------------||
|---------------------------------------------------------||

|


| PM------| PM-|

| E E E E +E E E E


|---------------------------------------------------------||
|---3------------------------2----(2)---------------------||
|---2------------------------2----(2)----------------2----||
|---4------------------------2----(2)----------------2----||
|------------0---------0-------------------0----0----0----||
|---------------------------------------------------------||

~~ ~~~~~ ~~~~~~~
E E H E E +E +E +Q a E E +Q


|-/14-12-14----14-16-|-(16)b17(16)-(16)r--14p12-12-(12)--|
|--------------------|-------------------------------------|
|--------------------|-------------------------------------|
|--------------------|-------------------------------------|
|--------------------|-------------------------------------|
|--------------------|-------------------------------------|

|
| Gtr II
| E E H Q +W


|--------------------|-------------------------------------|
|--------------------|-------------------------------------|
|--------------------|-------------------------------------|
|---------------7----|--(7)--------------------------------|
|---4-----4-----5----|--(5)--------------------------------|
|---2--0--2----------|-------------------------------------|

~~~ ~~
E E H E E W


|-/14-12-14-----14-17b19-|-17------------||
|------------------------|---------------||
|------------------------|---------------||
|------------------------|---------------||
|------------------------|---------------||
|------------------------|---------------||

|
| E E H. H E E E E


|------------------------|---------------||
|------------------------|---------------||
|------------------------|---------------||
|------------------------|--7------------||
|---4-----4--------------|--5----5-5-4---||
|---2--0--2--------------|-------------7-||

~~~~~~
E E E E E E E E Q E E E E Q


||------9--9--9--9--9--9--(9)-|-7--7-7-7-7---------|
||o-/9-10-10-10-10-10-10-(10)-|-9--9-9-9-9---------|
||--/9------------------------|--------------------|
||----------------------------|------------b10--|
||o---------------------------|--------------------|
||----------------------------|--------------------|

|
| W W


||----------------------------|--------------------|
||o---------------------------|--------------------|
||----------------------------|--------------------|
||----------------------------|--------------------|
||o--7------------------------|-2------------------|
||---5------------------------|-0------------------|

1.
N.C.


|------6-------| |------6-------| |------6-------| |------6-------|

S S S S S S S S S S S S S S S S S S S S S S S S


|--------------------------------------------------------14-16-17-------14-|
|-----------------------------------------------14-15-17----------14-15----|
|-----------13-16-14-13----------------13-14-16----------------------------|
|-/16-14-16-------------16-14-13-14-16-------------------------------------|
|--------------------------------------------------------------------------|
|--------------------------------------------------------------------------|

~~~~


|------6-------| |------6-------| |------6-------|

S S S S S S S S S S S S S S S S S S +E +E


|-16-17-19-16-16-14-16-14----------19-17-16-14-------19-(19)b21-(19)---||
|-------------------------17-15-17-------------17-15------------------o||
|----------------------------------------------------------------------||
|----------------------------------------------------------------------||
|---------------------------------------------------------------------o||
|----------------------------------------------------------------------||

2.
F#5 N.C.
PM PM–| ~~~~~~~~ ~
E E E E E E E E +E E E Q E Q


|-------------------------|-----------------|
|-------------------------|-----------------|
|-------()-()-------|-----------------|
|-------()-()-------|-----------------|
|-4---4-()-()-------|-----------------|
|-2-0-2-()-()-2-4-5-|-(5)-4-2-0--2-4--|

[D5/A] [E5/B] Gtr IV
PM PM–| TP
E E E E E E E E +Q. H E


|-------------------------|------------------||
|-------------------------|------------------||
|-------()-()-------|------------------||
|-------()-()-----7-|-(7)---9----(x)--||
|-4---4-()-()-----5-|-(5)---7----(x)--||
|-2-0-2-()-()-0-2-5-|-(5)---7----------||

Gtr I[E/Ab][D/F#]


PM| PM----| PM----| PM| PM|

E E E S S S S E S S S S E E E E +E E E E 4x


||--------------------------|--------------------||
||o-----5---------5---------|-3-----2-(2)-------o||
||------6---------4---------|-2-----2-(2)-----2--||
||------7---------6---------|-4-----2-(2)-----2--||
||o-0-0---0-0-0-0---0-0-0-0-|---0-0-------0-0-0-o||
||--------------------------|--------------------||

Gtr I
~~~ ~~~~~ ~~~~~~~
E E H E E +E +E +Q a E E +Q


|-/14-12-14-----14-16-|-(16)b17(16)-(16)r--14p12-12-(12)--|
|---------------------|-------------------------------------|
|---------------------|-------------------------------------|
|---------------------|-------------------------------------|
|---------------------|-------------------------------------|
|---------------------|-------------------------------------|

|
| Gtr II
| ~~~
| E E H Q W


|---------------------|-------------------------------------|
|-/15-14-15-----------|-------------------------------------|
|---------------------|-------------------------------------|
|---------------------|-------------------------------------|
|---------------------|-------------------------------------|
|---------------------|-------------------------------------|

|
| Gtr III
| E E H. W


|---------------------|-------------------------------------|
|---------------------|-------------------------------------|
|---------------------|-------------------------------------|
|---------------------|---7---------------------------------|
|---4-----4-----------|---5---------------------------------|
|---2--0--2-----------|-------------------------------------|

~~~ ~~
E E H E E W


|-/14-12-14-----14-17b19-|-17------------||
|------------------------|---------------||
|------------------------|---------------||
|------------------------|---------------||
|------------------------|---------------||
|------------------------|---------------||

|
| ~~~
| E E H Q W


|------------------------|---------------||
|-/15-14-15--------------|---------------||
|------------------------|---------------||
|------------------------|---------------||
|------------------------|---------------||
|------------------------|---------------||

|
| E E H. H E E E E


|------------------------|---------------||
|------------------------|---------------||
|------------------------|---------------||
|------------------------|--7------------||
|---4-----4--------------|--5----5-5-4---||
|---2--0--2--------------|-------------7-||

~~~~~~
E E E E E E E E Q E E E E Q


||------9--9--9--9--9--9--(9)-|-7--7-7-7-7---------|
||o-/9-10-10-10-10-10-10-(10)-|-9--9-9-9-9---------|
||--/9------------------------|--------------------|
||----------------------------|------------b10--|
||o---------------------------|--------------------|
||----------------------------|--------------------|

|
| W W


||----------------------------|--------------------|
||o---------------------------|--------------------|
||----------------------------|--------------------|
||----------------------------|--------------------|
||o--7------------------------|-2------------------|
||---5------------------------|-0------------------|

1.
N.C.


|------6-------| |------6-------| |------6-------| |------6-------|

S S S S S S S S S S S S S S S S S S S S S S S S


|-------------------------------------------------------------------------|
|-------------------------------------------------------------------------|
|-13----------16-14-13----------------------------16-14-13----------16-14-|
|----16-14-13----------16-14-13----------16-14-13----------16-14-13-------|
|-------------------------------16-14-12----------------------------------|
|-------------------------------------------------------------------------|
|------6-------| |------6-------| |------6-------| |--------6--------|

S S S S S S S S S S S S S S S S S S S S S S S S


|-------------17-16-14----------19-17-16----------21-19-17---------------------||
|----17-15-14----------17-15-14----------19-17-15----------21-19-17-----------o||
|-13----------------------------------------------------------------(18)p(16)--||
|------------------------------------------------------------------------------||
|-----------------------------------------------------------------------------o||
|------------------------------------------------------------------------------||

2.
F#5 N.C.
PM PM–| ~~~~~~~~ ~
E E E E E E E E +E E E Q E Q


|-------------------------|-----------------|
|-------------------------|-----------------|
|-------()-()-------|-----------------|
|-------()-()-------|-----------------|
|-4---4-()-()-------|-----------------|
|-2-0-2-()-()-2-4-5-|-(5)-4-2-0--2-4--|

[D5/A] [E5/B]


PM PM--------|

E E E E E E E E +Q. H E


|-------------------------|-----------------||
|-------------------------|-----------------||
|-------()-()-------|-----------------||
|-------()-()-----7-|-(7)---9---------||
|-4---4-()-()-----5-|-(5)---7---------||
|-2-0-2-()-()-0-2-5-|-(5)---7----15--||

Pre-Solo

[2/4] H [4/4] W


|----------||-------------------|
|----------||-------------------|
|----------||-------------------|
|----------||-------------------|
|----------||-------------------|
|----------||-------------------|

|
| Gtr II
| E E +Q +Q E E E E E E


|----------||-------------------|
|----------||-------------------|
|----------||-----------2-2-----|
|-4-4-(4)--||-(4)------2-2-----|
|-4-4-(4)--||-(4)------0-0-----|
|-2-2-(2)--||-(2)--2-4-----4-2-|

T


|------6-------| |------6-------|

S S S S S S S S S S S S T T T S +E S. +E


|-------------16h19-24p19p16-------------------21b22r(21)-----22b24(22)--|
|----------17----------------17-------------19-------------------------------|
|-------16----------------------16-------19----------------------------------|
|----18----------------------------18----------------------------------------|
|-19----------------------------------19-------------------------------------|
|----------------------------------------------------------------------------|

|
| E E E E E E +Q


|----------------------------------------------------------------------------|
|----------------------------------------------------------------------------|
|----------------------------------------------------------------------------|
|--2--------2--------------------------4-------------4------(4)--------------|
|--2--------2--------------------------4-------------4------(4)--------------|
|--0--------0--------4--------0--------2-------------2------(2)--------------|

~~~~~ ~~~~ ~~~~~~~~~


|------6-------|

+E E +S +S S S S S S S S +S +Q


|-(22)r-24b26-(24)-(24)-16-14-------------16b17(16)-(16)r---|
|-----------------------------17-15-14-17-17b19(17)-(17)r---|
|-------------------------------------------------------------|
|-------------------------------------------------------------|
|-------------------------------------------------------------|
|-------------------------------------------------------------|

|
| +Q E E E E E E


|-------------------------------------------------------------|
|-------------------------------------------------------------|
|---------------------------------2--------2------------------|
|--(4)---------------------------2--------2------------------|
|--(4)---------------------------0--------0------------------|
|--(2)---------2--------4------------------------------4---2-|

~~~~~~~~~~~


|------6-------|

S S S S S S S +E. +Q Q W


|-16-14--------------17b18(17)---(17)r--------|--------------------|
|-------17-15-14-17-/19b21(19)---(19)r--------|--------------------|
|-----------------------------------------------|--------------------|
|-----------------------------------------------|--------------------|
|-----------------------------------------------|--------------------|
|-----------------------------------------------|--------------------|

|
| E E E E E E +Q +Q E E E E E E


|-----------------------------------------------|--------------------|
|-----------------------------------------------|--------------------|
|-----------------------------------------------|-----------2-2------|
|--2--------2------------------------4---4-(4)--|-(4)------2-2------|
|--2--------2------------------------4---4-(4)--|-(4)------0-0------|
|--0--------0---------4----------0---2---2-(2)--|-(2)--2-4-----4-2--|

T T


|---------7---------| |---------7---------| |---------7---------| |--------7---------|

S S S S S S S S S S S S S S S S S S S S S S S S S S S S


|------------------16h19-22p19p16--------------------------------17h21-24p21p17-------------|
|---------------17----------------17--------------------------19-----------------19----------|
|----------16--------------------------16----------------18-------------------------18-------|
|-------18--------------------------------18----------19-------------------------------19----|
|-14h19--------------------------------------19-17h21-------------------------------------21-|
|--------------------------------------------------------------------------------------------|

|
| E E E E E E +Q


|--------------------------------------------------------------------------------------------|
|--------------------------------------------------------------------------------------------|
|--------------------------------------------------------------------------------------------|
|--2----------2----------------------------------4----------4----------(4)-------------------|
|--2----------2----------------------------------4----------4----------(4)-------------------|
|--0----------0-----------4----------0-----------2----------2----------(2)-------------------|

[D5/A][E5/B]
[2/4]


|-------6--------|

S S S S S S T T S S S H Q E. T T


|----------------------------------------||---------------||
|----------------------------------------||-------7h10----||
|------------------14h18p14h18p14--------||---------------||
|-16h19p16h19p16-----------------------||---------------||
|----------------------------------------||---------------||
|----------------------------------------||---------------||

|
| +H H H


|----------------------------------------||---------------||
|----------------------------------------||---------------||
|----------------------------------------||---------------||
|-(4)------------------------------7----||-9-------------||
|-(4)------------------------------5----||-7-------------||
|-(2)------------------------------5----||-7-------------||

Guitar Solo – MAB

[4/4] Gtr I
T T T T


|----6-----| |----6-----| |----6-----| |----6-----|

S S S S S S S S S S S S S S S S S S S S S S S S


|---------------------------------------------------------|

|-14p10p7p5h7p5-14p10p7p5h7p5-14p10p7p5h7p5-14p10p7p5h7p5-|


|---------------------------------------------------------|
|---------------------------------------------------------|
|---------------------------------------------------------|
|---------------------------------------------------------|

|
| Gtr II
| H. Q


|---------------------------------------------------------|
|---------------------------------------------------------|
|--------------------------------------------9------------|
|--4-----------------------------------------9------------|
|--4-----------------------------------------7------------|
|--2------------------------------------------------------|

T T T T


|----6-----| |----6-----| |----6-----| |----6-----|

S S S S S S S S S S S S S S S S S S S S S S S S


|-----------------------------------------------------------|
|-15p10p7p5h7p5-15p10p7p5h7p5-15p10p7p5h7p5-14p10p7p5h7p5---|
|-----------------------------------------------------------|
|-----------------------------------------------------------|
|-----------------------------------------------------------|
|-----------------------------------------------------------|

|
| H. Q


|-----------------------------------------------------------|
|-----------------------------------------------------------|
|--7-----------------------------------------6--------------|
|--7-----------------------------------------6--------------|
|--5-----------------------------------------4--------------|
|-----------------------------------------------------------|

T T T T PM|


|----6----| |----6----| |----6-----|

S S S S S S S S S S S S S S S S S S S S S S


|-------------------------------------------------|
|-12p7p3p0h3h7-12p7p3p0h3h7-10p7p3p0h5-10p5p0-----|
|-----------------------------------------------7-|
|---------------------------------------------9---|
|-------------------------------------------------|
|-------------------------------------------------|

|
| H. Q


|-------------------------------------------------|
|-------------------------------------------------|
|--4--------------------------------------2-------|
|--4--------------------------------------2-------|
|--2--------------------------------------0-------|
|-------------------------------------------------|

~~~~~~~~~
E +E E E +Q +Q


|------------------------------|
|----------10------------------|
|-9b11-(9)----9b11(9)--(9)r--|
|------------------------------|
|------------------------------|
|------------------------------|

|
| W


|------------------------------|
|------------------------------|
|------------------------------|
|-4----------------------------|
|-4----------------------------|
|-2----------------------------|

~~~~ ~~~~
E. E. E E +Q. E. E. E E +Q.


|-/17--16--14---------------|-14--16--17-17b19-(17)----|
|-------------17b19-(17)----|--------------------------|
|---------------------------|--------------------------|
|---------------------------|--------------------------|
|---------------------------|--------------------------|
|---------------------------|--------------------------|

|
| H. Q H. Q


|---------------------------|--------------------------|
|---------------------------|--------------------------|
|------------------------9--|--7--------------------6--|
|---4--------------------9--|--7--------------------6--|
|---4--------------------7--|--5--------------------4--|
|---2-----------------------|--------------------------|

S S S S S S S S S S S S S S S S


|-16h17p16-14h16p14----14-------------------------|
|-------------------17----17p15p14----14----------|
|----------------------------------16----16p14-16-|
|-------------------------------------------------|
|-------------------------------------------------|
|-------------------------------------------------|

|
| H. Q


|-------------------------------------------------|
|-------------------------------------------------|
|--4-----------------------------------2----------|
|--4-----------------------------------2----------|
|--2-----------------------------------0----------|
|-------------------------------------------------|

~~~~~~~
+S +S E S +S E +H


|-------------------------------------|
|---------------17--------------------|
|-(16)b18(16)----16r(16)-14-(14)----|
|-------------------------------------|
|-------------------------------------|
|-------------------------------------|

|
| W


|-------------------------------------|
|-------------------------------------|
|-------------------------------------|
|---4---------------------------------|
|---4---------------------------------|
|---2---------------------------------|


|--------6--------| |------6-------| |---------6----------| |------6-------|

S S a S S S S S S S S S S S S a T T S S S S S S S S S


|-----14-x-17p14----------14-17p14----------14-17s19s17p14----------------16-19p16-|
|-15-------------15----15----------15----15-------------------15----15-17----------|
|-------------------14----------------14-------------------14----14----------------|
|----------------------------------------------------------------------------------|
|----------------------------------------------------------------------------------|
|----------------------------------------------------------------------------------|

|
| H. Q


|----------------------------------------------------------------------------------|
|----------------------------------------------------------------------------------|
|-----------------------------------------------------------------9----------------|
|--4--------------------------------------------------------------9----------------|
|--4--------------------------------------------------------------7----------------|
|--2-------------------------------------------------------------------------------|


|-------6-------| |------6-------| |------6-------| |------6-------|

S S S S S S S S S S S S S S S S S S S S S S S S


|-----------17-21p17----------21p17----------21p17----------16-19p16--------|
|-17-----19----------19----19-------19----19-------17----17----------17-----|
|-----16----------------18-------------18-------------16----------------16--|
|---------------------------------------------------------------------------|
|---------------------------------------------------------------------------|
|---------------------------------------------------------------------------|

|
| H. Q


|---------------------------------------------------------------------------|
|---------------------------------------------------------------------------|
|--7------------------------------------------------------6-----------------|
|--7------------------------------------------------------6-----------------|
|--5------------------------------------------------------4-----------------|
|---------------------------------------------------------------------------|


|-------6-------| |------6-------| |------6-------| |------6-------|

S S S S S S S S S S S S S S S S S S S S S S S S


|-----16-19p16----------16-19p16----------14-17p14----------16p12----------|
|-17-----------17----17----------17----17----------15----15-------12----12-|
|-----------------16----------------16----------------14-------------13----|
|--------------------------------------------------------------------------|
|--------------------------------------------------------------------------|
|--------------------------------------------------------------------------|

|
| H. Q


|--------------------------------------------------------------------------|
|--------------------------------------------------------------------------|
|--4------------------------------------------------------2----------------|
|--4------------------------------------------------------2----------------|
|--2------------------------------------------------------0----------------|
|--------------------------------------------------------------------------|

~~~~
|–3–|
S S S S +E E E +Q S E


|-16p12-17------------17-------------------|
|----------17b19-(17)----17b19-(17)--14p12-|
|------------------------------------------|
|------------------------------------------|
|------------------------------------------|
|------------------------------------------|

|
| W


|------------------------------------------|
|------------------------------------------|
|------------------------------------------|
|--4---------------------------------------|
|--4---------------------------------------|
|--2---------------------------------------|

S S S S S S S S S S S S S S S S


|-------------------------------------------------|
|-------------------------------------------------|
|-14p13h14p13-------14p13-------14p13-------14p13-|
|-------------16p14-------16p14-------16p14-------|
|-------------------------------------------------|
|-------------------------------------------------|

|
| H. Q


|-------------------------------------------------|
|-------------------------------------------------|
|--------------------------------------9----------|
|--4-----------------------------------9----------|
|--4-----------------------------------7----------|
|--2----------------------------------------------|

~~~~~~~~~~~~


|------6-------|

S S S S S S S S S S S +E. +Q


|---------------------------------------------|
|---------------------------------------------|
|-------13h14p13h14p13h14-14----16-(16)-(16)--|
|-16p14----------------------16---------------|
|---------------------------------------------|
|---------------------------------------------|

|
| H. Q


|---------------------------------------------|
|---------------------------------------------|
|--7--------------------------------------6---|
|--7--------------------------------------6---|
|--5--------------------------------------4---|
|---------------------------------------------|


|-------6-------| |------6-------| |------6-------| |------6-------|

S S S S S S S S S S S S S S S S S S S S S S S S


|--------------------------------------------------------------------------|
|--------------------------------------------------------------------------|
|-----------11----------------------------------13-16-14-13----------13-14-|
|-11--12-14----14-12-11----------11-12-14-12-14-------------16-14-16-------|
|-----------------------14-12-14-------------------------------------------|
|--------------------------------------------------------------------------|

|
| H. Q


|--------------------------------------------------------------------------|
|--------------------------------------------------------------------------|
|--4------------------------------------------------------2----------------|
|--4------------------------------------------------------2----------------|
|--2------------------------------------------------------0----------------|
|--------------------------------------------------------------------------|


|------6-------| |------6-------| |------6-------| |------6-------|

S S S S S S S S S S S S S S S S S S S S S S S S


|----------------------------------------14-16-17-16-14----14-16-17-19-21-|
|----14-17-15-14----------------14-15-17----------------17----------------|
|-16-------------16-14-13-14-16-------------------------------------------|
|-------------------------------------------------------------------------|
|-------------------------------------------------------------------------|
|-------------------------------------------------------------------------|

|
| W


|-------------------------------------------------------------------------|
|-------------------------------------------------------------------------|
|-------------------------------------------------------------------------|
|--4----------------------------------------------------------------------|
|--4----------------------------------------------------------------------|
|--2----------------------------------------------------------------------|

~~~~~~~~~~~~~~
[+E] [+E] [+E] [+H]


|----------------------------------|
|-17--(17)b19(17)-(17)-(17)r-----|
|----------------------------------|
|----------------------------------|
|----------------------------------|
|----------------------------------|

|
| H. Q


|----------------------------------|
|----------------------------------|
|-------------------------------9--|
|--4----------------------------9--|
|--4----------------------------7--|
|--2-------------------------------|


|-------6-------| |------6-------| |------6-------| |------6-------|

S S S S S S S S S S S S S S S S S S S S S S S S


|---------------------------------------------------------------------------|
|-----------14----------------14-15----------14-15-17-15-14----------14-15--|
|-13--14-16----16-14-13-14-16-------16-14-16----------------16-14-16--------|
|---------------------------------------------------------------------------|
|---------------------------------------------------------------------------|
|---------------------------------------------------------------------------|

|
| H. Q


|---------------------------------------------------------------------------|
|---------------------------------------------------------------------------|
|--7------------------------------------------------------6-----------------|
|--7------------------------------------------------------6-----------------|
|--5------------------------------------------------------4-----------------|
|---------------------------------------------------------------------------|


|-------6-------| |------6-------| |------6-------| |------6-------|

S S S S S S S S S S S S S S S S S S S S S S S S


|--------------14----------------14-16-17-19-21-22-21-19-17-16-14----------|
|-17--14-15-17----17-15-14-15-17----------------------------------17-15-14-|
|--------------------------------------------------------------------------|
|--------------------------------------------------------------------------|
|--------------------------------------------------------------------------|
|--------------------------------------------------------------------------|

|
| H. Q


|--------------------------------------------------------------------------|
|--------------------------------------------------------------------------|
|--4------------------------------------------------------2----------------|
|--4------------------------------------------------------2----------------|
|--2------------------------------------------------------0----------------|
|--------------------------------------------------------------------------|


|------6-------| |------6-------| |------6-------| |------6-------|

S S S S S S S S S S S S S S S S S S S S S S S S


|-------------------------------------------------------17-21-21p17-------|
|-15-17----------14-15-17-15-14----------------------19-------------19----|
|-------16-14-13----------------16-14-13-16-14-13-18-------------------18-|
|-------------------------------------------------------------------------|
|-------------------------------------------------------------------------|
|-------------------------------------------------------------------------|

|
| W


|-------------------------------------------------------------------------|
|-------------------------------------------------------------------------|
|-------------------------------------------------------------------------|
|--4----------------------------------------------------------------------|
|--4----------------------------------------------------------------------|
|--2----------------------------------------------------------------------|

~~~~~~~~~


|-----5------| |------6-------|

S S S S S S +S +E +Q S S S S S S


|--------------17-19b21(19)-(19)-(19)r--21-19-17----------|
|-----------17-------------------------------------21-19-17-|
|--------18-------------------------------------------------|
|-19--------------------------------------------------------|
|-----21----------------------------------------------------|
|-----------------------------------------------------------|

|
| H. Q


|-----------------------------------------------------------|
|-----------------------------------------------------------|
|------------------------------------------9----------------|
|--4---------------------------------------9----------------|
|--4---------------------------------------7----------------|
|--2--------------------------------------------------------|

~~


|-------6-------| |------6-------| |------6-------|

S S S S S S S S S S S S S S S S S S Q


|--------------------------------------------------17-19-21---|
|-----------------------------------------17-19-21------------|
|-18--16-14-------------------14-16-18S20---------------------|
|-----------18-16-14-14-16-18---------------------------------|
|-------------------------------------------------------------|
|-------------------------------------------------------------|

|
| H. Q


|-------------------------------------------------------------|
|-------------------------------------------------------------|
|--7------------------------------------------------------6---|
|--7------------------------------------------------------6---|
|--5------------------------------------------------------4---|
|-------------------------------------------------------------|


|-------6-------| |------6-------| |------6-------| |------6-------|

S S S S S S S S S S S S S S S S S S S S S S S S


|-----------17-16-14----------------------------------17-16-14----------19-|
|-14--15-17-------------------------------------15-17----------17-15-14----|
|--------------------14-16-18-16-14S13S14-16-18----------------------------|
|--------------------------------------------------------------------------|
|--------------------------------------------------------------------------|
|--------------------------------------------------------------------------|

|
| H. Q


|--------------------------------------------------------------------------|
|--------------------------------------------------------------------------|
|--4------------------------------------------------------2----------------|
|--4------------------------------------------------------2----------------|
|--2------------------------------------------------------0----------------|
|--------------------------------------------------------------------------|

~~~~


|------6-------|

S S S S S S +E +E E +S +S S +S +S +S


|-17-15----------19-(19)b21-(19)-19-(19)b21-(19)-19b21r(19)b21r(19)b21-(19)-||
|-------19-17-15------------------------------------------------------------||
|---------------------------------------------------------------------------||
|---------------------------------------------------------------------------||
|---------------------------------------------------------------------------||
|---------------------------------------------------------------------------||

|
| W


|---------------------------------------------------------------------------||
|---------------------------------------------------------------------------||
|---------------------------------------------------------------------------||
|--4------------------------------------------------------------------------||
|--4------------------------------------------------------------------------||
|--2------------------------------------------------------------------------||

[(F#)]Gtr I


PM| PM PM PM PM--| PM-----


||------------------|-----------------|
||o-----------------|-----------------|
||------------------|-----------------|
||------------------|-----------------|
||o-----4---5---4---|-2-------2-------|
||--2-2---2---2---2-|---5-4-5---5-4-0-|

1. 2.


---| PM PM PM PM--| PM--|


|-----------------|------------------||-----------||
|-----------------|-----------------o||-----------||
|-----------------|------------------||-7----9----||
|-----------------|------------------||-7----9----||
|-----4---5---4---|-2-------2-------o||-5----7----||
|-2-2---2---2---2-|---5-4-5---5-4-0--||-----------||

Gtr I[E/Ab][D/F#]
W W


|-------------------------|-------------------|
|-------------------------|-------------------|
|-------------------------|-------------------|
|-------------------------|-------------------|
|-------------------------|-------------------|
|-------------------------|-------------------|

|
| Gtr II


| PM| PM----| PM----| PM| PM|

| E E E S S S S E S S S S E E E E +E E E E


|-------------------------|-------------------|
|-----5---------5---------|-3-----2-(2)-------|
|-----6---------4---------|-2-----2-(2)-----2-|
|-----7---------6---------|-4-----2-(2)-----2-|
|-0-0---0-0-0-0---0-0-0-0-|---0-0-------0-0-0-|
|-------------------------|-------------------|

[E/Ab] [D/F#] ~
S S S S S S S S S S S S S S S S S S S S S S S S S S S S S S E


|---------5-9p5-------------------|--------------5-9p5--------------|
|---------------------5-9p5-------|----------------------------------|
|-----6h9-------9p6-------------7-|-11p7-----------------9p6---------|
|-7h9---------------7-------9p6---|------7-------------------7-------|
|---------------------------------|--------7-9p5---------------7-----|
|---------------------------------|------------------------------9p5-|

|
| Gtr II


| PM--| PM----| PM----| PM--| PM--|

| E E E S S S S E S S S S E E E E +E E E E


|---------------------------------|----------------------------------|
|---------5-----------5-----------|--3-----------2---(2)-------------|
|---------6-----------4-----------|--2-----------2---(2)-----------2-|
|---------7-----------6-----------|--4-----------2---(2)-----------2-|
|-0---0-------0-0-0-0-----0-0-0-0-|------0---0-------------0---0---0-|
|---------------------------------|----------------------------------|

S S S S S S S S S S [E/Ab] S S S S S S


|---------------17-21p17-------------------12-16p12-|
|------------19----------19-------------12----------|
|---------18----------------18-------13-------------|
|-16h19----------------------19-14----------------|
|---------------------------------------------------|
|-(5)----------------------------------------------|

|


| PM-----| PM------| PM------|

| E E E S S S S E S S S S


|---------------------------------------------------|
|----------------5-----------------5----------------|
|----------------6-----------------4----------------|
|----------------7-----------------6----------------|
|--0-------0-----------0--0--0--0--------0--0--0--0-|
|---------------------------------------------------|

[D/F#] S S S S S S S S S S S S S S S S


|----------------10-14p10-----------/17-21p17--------|
|-12----------12----------10------------------19-----|
|----13----13-----------------11-----------------18--|
|-------14-----------------------12------------------|
|----------------------------------------------------|
|----------------------------------------------------|

|


| PM---| PM----|

| E E E E +E E E E


|----------------------------------------------------|
|--3-----------------2----(2)------------------------|
|--2-----------------2----(2)------------------2-----|
|--4-----------------2----(2)------------------2-----|
|--------0-----0------------------0------0-----0-----|
|----------------------------------------------------|

T T T T [E/Ab] T ~~~~~~~


|-------6--------| |--------6--------|

S S S S S S S S S S S S S S S S +Q


|-------------------------------------------------------------------|
|-------------------------------------------------------------------|
|-------------------------------------------------------------------|
|-19p16-------------------------------------------------------------|
|-------16p-------------------------16p-19p16-19p16---------------|

To play the this songs, including Tribute to Randy by Michael Angelo Batio by ukulele, the most crucial basic ukulele chords to learn are C chord, D chord, G chord, and Em chord.
These set you up to play a ton of songs, and each of them is easy to master.

Leave a Reply

Your email address will not be published.